Sadness And Sorrow, Naruto (tablatura)

Autor: fera15 | 36712 visualizaciones



-----3-2-------3-2------------0------------------------3-2------
---------3---------0----------0--------1-------------3-----3----
------------------------------0------0----0--------2---------2--
---2---------2------------2---2----2--------2----0--------------
---------------------------------3------------------------------
-0---------0------------0---------------------------------------
 Em        Em          Em        C               D

-----------------2---
------0------------3-
--------0-----2------
---0--------0--------
---------------------
-3-------------------
 G          D

-------0--------------------------3---2-------3-2--------3-2----
-------0---------1--------------------------------3----------0--
-------0-------0-----0----------2---2---------------------------
---2---2-----2------2---2-----0-------------2----------2--------
-----------3----------------------------------------------------
-0----------------------------------------0----------0----------
 Em        C                  D          Em         Em

---------------------------------0---------
-1------0------------------------------0---
-0---0----4---2------0---4p2-0-2-----0---0-
-2-2------4-2---2--2-----------------------
-3--------2--------2-----------------------
-------------------0-----------------------
 C       Bm       Em

-------------------------------2--
--------0------0-----0------------
------0----------------0-----2----
----2--------4-----0-------0------
--3--------2----------------------
-----------------3----------------
  C       Bm     G

---------------------------3-2----
-------0--------0-----------------
-----0--------0--------0----------
---2--------4--------2---2--------
-3--------2-----------------------
------------------0---------------
 C        Bm      Em

---------------------0--------0---
------0----------------1--------1-
--------0-------------------------
----2---------------2-------2-----
--3---------2-----3-------3-------
----------------------------------
 C                C       C

-----0---------0---------0---------0---------0---------0--------
-------3---------3---------3---------3---------3---------3------
---2---------2---------2---------2---------2---------2----------
---------------------3---------3--------------------------------
-0---------0---------0---------0---------0---------0------------
 Em       Em         C         C         Em        Em

Se vuelve a repetir (Em, C, Em,)

------
------
------
--2---
--3---
--0---

 






Comentarios del colaborador: akii les dejo la cancion de naruto - sadness and sorrow espero i la disfruten, ^^

Calificar esta versión:
Aviso: Este fichero es trabajo propio de su transcriptor y representa su interpretación personal de la canción. El material contenido en esta página es para exclusivo uso privado, por lo que se prohibe su reproducción o retransmisión, así como su uso para fines comerciales.
Más versiones de Sadness And Sorrow, Naruto
Sadness And Sorrow
tablatura
Sadness And Sorrow (ver 2)
tablatura
Sadness And Sorrow (ver 3)
tablatura
Sadness And Sorrow (ver 4)
tablatura
Sadness And Sorrow (ver 5)
tablatura
Descubre más canciones de Naruto