Rising Fighting Spirit, Naruto (tablatura) (ver 2)

Autor: guitaaar | 24961 visualizaciones



E  E  E  E  E  E  S S E  E  E  E  E     E  E  E  E  E  E  Q    Q
E||---------------------------------------|------------------------------|
B||---------------------------------------|------------------------------|
G||---------------------------------------|--------------------7---------|
D||---------------------------------------|--------------------7----7----|
A||--------------------0-2-0-----0--------|--------------------5----7----|
E||--0--0--0--3--2--0---------3-----3--2--|--0--0--0--3--2--0-------5----|


  PM PM PM PM PM PM        PM    PM PM
  |--3--|  |--3--|  |---3--|  |--3--|     |-3|    |----3----|    |--3-|
  E  E  E  E  E  E  S S E  E  E  E  E     E  Q    Q    Q    Q    Q    E
---------------------------------------|---------------------------------|
---------------------------------------|---------------------------------|
---------------------------------------|-----5----5---------4----4----L--|
---------------------------------------|-----5----5---------4----4----L--|
--------------------0-2-0-----0--------|-----3----3---------2----2----L--|
--0--0--0--3--2--0---------3-----3--2--|--0------------0-----------------|


  PM PM PM PM PM PM        PM PM PM PM    PM PM PM PM PM PM
  |--3--|  |--3--|  |---3--|  |--3--|     |--3--|  |--3--|
  E  E  E  E  E  E  S S E  E  E  E  E     E  E  E  E  E  E  Q    Q
---------------------------------------|------------------------------|
---------------------------------------|------------------------------|
---------------------------------------|--------------------7---------|
---------------------------------------|--------------------7----7----|
--------------------0-2-0-----0--------|--------------------5----7----|
--0--0--0--3--2--0---------3-----3--2--|--0--0--0--3--2--0-------5----|


  PM PM PM PM PM PM        PM    PM PM
  |--3--|  |--3--|  |---3--|  |--3--|     |-3|    |----3----|    |--3-|
  E  E  E  E  E  E  S S E  E  E  E  E     E  Q    Q    Q    Q    Q    E
---------------------------------------|---------------------------------|
---------------------------------------|---------------------------------|
---------------------------------------|-----5----5---------4----4----L--|
---------------------------------------|-----5----5---------4----4----L--|
--------------------0-2-0-----0--------|-----3----3---------2----2----L--|
--0--0--0--3--2--0---------3-----3--2--|--0------------0-----------------|


       PM PM PM      PM PM PM         PM PM PM      PM PM PM
       |--3--|       |--3--|          |--3--|       |--3--|
  Q    E  E  E  Q    E  E  E     Q    E  E  E  Q    E  E  E
------------------------------|------------------------------|
------------------------------|------------------------------|
--9-------------9-------------|--7-------------7-------------|
--9-------------9-------------|--7-------------7-------------|
--7----7--7--7--7----7--7--7--|--5----5--5--5--5----5--5--5--|
------------------------------|------------------------------|


       PM PM PM      PM PM PM         PM PM PM      PM PM PM
       |--3--|       |--3--|          |--3--|       |--3--|
  Q    E  E  E  Q    E  E  E     Q    E  E  E  Q    E  E  E
------------------------------|------------------------------|
------------------------------|------------------------------|
--9-------------9-------------|--7-------------7-------------|
--9-------------9-------------|--7-------------7-------------|
--7----7--7--7--7----7--7--7--|--5----5--5--5--5----5--5--5--|
------------------------------|------------------------------|


       PM PM PM      PM PM PM         PM PM PM      PM PM PM
       |--3--|       |--3--|          |--3--|       |--3--|
  Q    E  E  E  Q    E  E  E     Q    E  E  E  Q    E  E  E
------------------------------|------------------------------|
------------------------------|------------------------------|
--5-------------5-------------|--7-------------7-------------|
--5-------------5-------------|--7-------------7-------------|
--3----3--3--3--3----3--3--3--|--5----5--5--5--5----5--5--5--|
------------------------------|------------------------------|


  PM PM PM PM PM PM        PM PM PM PM    PM PM PM PM PM PM
  |--3--|  |--3--|  |---3--|  |--3--|     |--3--|  |--3--|
  E  E  E  E  E  E  S S E  E  E  E  E     E  E  E  E  E  E  Q    Q
---------------------------------------|------------------------------|
---------------------------------------|------------------------------|
---------------------------------------|--------------------7---------|
---------------------------------------|--------------------7----7----|
--------------------0-2-0-----0--------|--------------------5----7----|
--0--0--0--3--2--0---------3-----3--2--|--0--0--0--3--2--0-------5----|


  PM PM PM PM PM PM        PM PM PM PM
  |--3--|  |--3--|  |---3--|  |--3--|     |-3|    |----3----|    |--3-|
  E  E  E  E  E  E  S S E  E  E  E  E     E  Q    Q    Q    Q    Q    E
---------------------------------------|---------------------------------|
---------------------------------------|---------------------------------|
---------------------------------------|-----5----5---------4----4----L--|
---------------------------------------|-----5----5---------4----4----L--|
--------------------0-2-0-----0--------|-----3----3---------2----2----L--|
--0--0--0--3--2--0---------3-----3--2--|--0------------0-----------------|


       PM PM PM      PM PM PM         PM PM PM      PM PM PM
       |--3--|       |--3--|          |--3--|       |--3--|
  Q    E  E  E  Q    E  E  E     Q    E  E  E  Q    E  E  E
------------------------------|------------------------------|
------------------------------|------------------------------|
--9-------------9-------------|--7-------------7-------------|
--9-------------9-------------|--7-------------7-------------|
--7----7--7--7--7----7--7--7--|--5----5--5--5--5----5--5--5--|
------------------------------|------------------------------|


       PM PM PM      PM PM PM         PM PM PM      PM PM PM
       |--3--|       |--3--|          |--3--|       |--3--|
  Q    E  E  E  Q    E  E  E     Q    E  E  E  Q    E  E  E
------------------------------|------------------------------|
------------------------------|------------------------------|
--9-------------9-------------|--7-------------7-------------|
--9-------------9-------------|--7-------------7-------------|
--7----7--7--7--7----7--7--7--|--5----5--5--5--5----5--5--5--|
------------------------------|------------------------------|


       PM PM PM      PM PM PM         PM PM PM      PM PM PM
       |--3--|       |--3--|          |--3--|       |--3--|
  Q    E  E  E  Q    E  E  E     Q    E  E  E  Q    E  E  E
------------------------------|------------------------------|
------------------------------|------------------------------|
--5-------------5-------------|--7-------------7-------------|
--5-------------5-------------|--7-------------7-------------|
--3----3--3--3--3----3--3--3--|--5----5--5--5--5----5--5--5--|
------------------------------|------------------------------|


       PM PM PM      PM PM PM         PM PM PM      PM PM PM
       |--3--|       |--3--|          |--3--|       |--3--|
  Q    E  E  E  Q    E  E  E     Q    E  E  E  Q    E  E  E
------------------------------|------------------------------|
------------------------------|------------------------------|
--9-------------9-------------|--7-------------7-------------|
--9-------------9-------------|--7-------------7-------------|
--7----7--7--7--7----7--7--7--|--5----5--5--5--5----5--5--5--|
------------------------------|------------------------------|


  PM PM PM PM PM PM        PM PM PM PM    PM PM PM PM PM PM
  |--3--|  |--3--|  |---3--|  |--3--|     |--3--|  |--3--|
  E  E  E  E  E  E  S S E  E  E  E  E     E  E  E  E  E  E  Q    Q
---------------------------------------|------------------------------|
---------------------------------------|------------------------------|
---------------------------------------|--------------------7---------|
---------------------------------------|--------------------7----7----|
--------------------0-2-0-----0--------|--------------------5----7----|
--0--0--0--3--2--0---------3-----3--2--|--0--0--0--3--2--0-------5----|


  PM PM PM PM PM PM        PM PM PM PM
  |--3--|  |--3--|  |---3--|  |--3--|     |-3|    |----3----|    |--3-|
  E  E  E  E  E  E  S S E  E  E  E  E     E  Q    Q    Q    Q    Q    E
---------------------------------------|---------------------------------|
---------------------------------------|---------------------------------|
---------------------------------------|-----5----5---------4----4----L--|
---------------------------------------|-----5----5---------4----4----L--|
--------------------0-2-0-----0--------|-----3----3---------2----2----L--|
--0--0--0--3--2--0---------3-----3--2--|--0------------0-----------------|


  PM PM PM PM PM PM      PM PM PM PM PM
  |--3--|  |--3--|   |---3--|  |--3--|
  E  E  E  E  E  E   E   E  E  E  E  E
----------------------------------------|
----------------------------------------|
----------------------------------------|
----------------------------------------|
--3--3--3--3--3--3--(3)--3--3--3--3--3--|
----------------------------------------|


  PM      PM PM PM PM PM      PM PM PM PM
  |---3---|  |--3--|  |---3---|  |--3--|
  E   E   E  E  E  E  E   E   E  E  E  E
------------------------------------------|
------------------------------------------|
------------------------------------------|
------------------------------------------|
--3--(3)--3--3--3--3--3--(3)--3--3--3--3--|
------------------------------------------|


        PM PM PM PM PM      PM PM PM PM
  |--3--|  |--3--|  |---3---|  |--3--|
  E  E  E  E  E  E  E   E   E  E  E  E     Q    Q    Q    Q
----------------------------------------|----------------------|
----------------------------------------|----------------------|
----------------------------------------|----------------------|
----------------------------------------|----------------------|
--2--L--2--2--2--2--2--(2)--2--2--2--2--|----------------------|
----------------------------------------|--0----2----3----4----|


       PM PM PM      PM PM PM         PM PM PM      PM PM PM
       |--3--|       |--3--|          |--3--|       |--3--|
  Q    E  E  E  Q    E  E  E     Q    E  E  E  Q    E  E  E
------------------------------|------------------------------|
------------------------------|------------------------------|
------------------------------|------------------------------|
------------------------------|------------------------------|
--7-------------7-------------|--9-------------9-------------|
--5----5--5--5--5----5--5--5--|--7----7--7--7--7----7--7--7--|


        PM PM PM       PM PM PM
        |--3--|        |--3--|     |----3----|    |-----3----|
   Q    E  E  E   Q    E  E  E     Q    Q    Q    Q     Q    Q
--------------------------------|---------------------------------|
--------------------------------|---------------------------------|
--------------------------------|--7----7----7----7\----L---------|
--------------------------------|--7----7----7----7\----L---------|
--10-------------10-------------|--5----5----5----5\----L---------|
---8----8--8--8---8----8--8--8--|---------------------------------|


          PM PM PM PM       PM PM PM          PM PM PM PM PM         PM PM 
PM
  |---3---|  |--3--|  |--3--|  |--3--|     |--3--|  |--3--|  |--3-|  |--3--|
  E   E   E  E  E  E  E  E  E  E  E  E     E  E  E  E  E  E  Q    E  E  E  E
----------------------------------------|-------------------------------------|
----------------------------------------|-------------------------------------|
----------------------------------------|-------------------------------------|
----------------------------------------|-------------------------------------|
--2--(2)--------------4--L--------------|--5-----------------5----L-----------|
--0--(0)--0--0--0--0--2--L--2--2--2-----|--3--3--3--3--3--3--3----L--3--3--3--|


        PM PM PM PM      PM PM PM PM          PM PM PM PM         PM PM PM
  |--3--|  |--3--|  |--3-|  |--3--|     |--3--|  |--3--|  |--3-|  |--3--|
  E  E  E  E  E  E  Q    E  E  E  E     E  E  E  E  E  E  Q    E  E  E  E
-------------------------------------|-------------------------------------|
-------------------------------------|-------------------------------------|
-------------------------------------|-------------------------------------|
--5--L-------------------------------|--7--L--------------4----L-----------|
--3--L--3--3--3--3--5----------------|--5--L--5--5--5--5--2----L--2--2--2--|
--------------------3----3--3--3--3--|-------------------------------------|


          PM PM PM PM       PM PM PM          PM PM PM PM PM         PM PM 
PM
  |---3---|  |--3--|  |--3--|  |--3--|     |--3--|  |--3--|  |--3-|  |--3--|
  E   E   E  E  E  E  E  E  E  E  E  E     E  E  E  E  E  E  Q    E  E  E  E
----------------------------------------|-------------------------------------|
----------------------------------------|-------------------------------------|
----------------------------------------|-------------------------------------|
----------------------------------------|-------------------------------------|
--2--(2)--------------4--L--------------|--5-----------------5----L-----------|
--0--(0)--0--0--0--0--2--L--2--2--2-----|--3--3--3--3--3--3--3----L--3--3--3--|


        PM PM PM PM      PM PM PM PM
  |--3--|  |--3--|  |--3-|  |--3--|     |----3----|    |-----3----|
  E  E  E  E  E  E  Q    E  E  E  E     Q    Q    Q    Q     Q    Q
-------------------------------------|---------------------------------|
-------------------------------------|---------------------------------|
-------------------------------------|--9----9----9----9\----L---------|
--5--L--------------7----------------|--9----9----9----9\----L---------|
--3--L--3--3--3--3--5----5--5--5--5--|--7----7----7----7\----L---------|
-------------------------------------|---------------------------------|


  PM PM PM PM PM PM        PM    PM PM    PM PM PM PM PM PM
  |--3--|  |--3--|  |---3--|  |--3--|     |--3--|  |--3--|
  E  E  E  E  E  E  S S E  E  E  E  E     E  E  E  E  E  E  Q    Q
---------------------------------------|------------------------------|
---------------------------------------|------------------------------|
---------------------------------------|--------------------7---------|
---------------------------------------|--------------------7----7----|
--------------------0-2-0-----0--------|--------------------5----7----|
--0--0--0--3--2--0---------3-----3--2--|--0--0--0--3--2--0-------5----|


  PM PM PM PM PM PM        PM    PM PM
  |--3--|  |--3--|  |---3--|  |--3--|     |-3|    |----3----|    |--3-|
  E  E  E  E  E  E  S S E  E  E  E  E     E  Q    Q    Q    Q    Q    E
---------------------------------------|---------------------------------|
---------------------------------------|---------------------------------|
---------------------------------------|-----5----5---------4----4----L--|
---------------------------------------|-----5----5---------4----4----L--|
--------------------0-2-0-----0--------|-----3----3---------2----2----L--|
--0--0--0--3--2--0---------3-----3--2--|--0------------0-----------------|


  PM PM PM PM PM PM        PM    PM PM    PM PM PM PM PM PM
  |--3--|  |--3--|  |---3--|  |--3--|     |--3--|  |--3--|
  E  E  E  E  E  E  S S E  E  E  E  E     E  E  E  E  E  E  Q    Q
---------------------------------------|------------------------------|
---------------------------------------|------------------------------|
---------------------------------------|--------------------7---------|
---------------------------------------|--------------------7----7----|
--------------------0-2-0-----0--------|--------------------5----7----|
--0--0--0--3--2--0---------3-----3--2--|--0--0--0--3--2--0-------5----|


  PM PM PM PM PM PM        PM    PM PM
  |--3--|  |--3--|  |---3--|  |--3--|     |-3|    |----3----|    |--3-|
  E  E  E  E  E  E  S S E  E  E  E  E     E  Q    Q    Q    Q    Q    E
---------------------------------------|---------------------------------|
---------------------------------------|---------------------------------|
---------------------------------------|-----5----5---------4----4----L--|
---------------------------------------|-----5----5---------4----4----L--|
--------------------0-2-0-----0--------|-----3----3---------2----2----L--|
--0--0--0--3--2--0---------3-----3--2--|--0------------0-----------------|


  |----3----|    |----3----|       |-3-|    3        3        3
  Q    Q    Q    Q    Q    Q       E   Q    H        H        E
--------------------------------|--------------------------------||
--------------------------------|--------------------------------||
--9----9----9----9----9----9----|--9\--L-------------------------||
--9----9----9----9----9----9----|--9\--L-------------------------||
--7----7----7----7----7----7----|--7\--L-------------------------||
--------------------------------|--------------------------------||





Calificar esta versión:
Aviso: Este fichero es trabajo propio de su transcriptor y representa su interpretación personal de la canción. El material contenido en esta página es para exclusivo uso privado, por lo que se prohibe su reproducción o retransmisión, así como su uso para fines comerciales.
Más versiones de Rising Fighting Spirit, Naruto
Rising Fighting Spirit
tablatura
Rising Fighting Spirit (ver 2)
tablatura
Descubre más canciones de Naruto