Rising Fighting Spirit, Naruto (tablatura)

Autor: megatincho | 37241 visualizaciones



/-------------------------------------------------/
/-------------------------------------------------/
/-/9-9-11-12-11--11h12p11p9-----/9-999--11-12-14M-/
/---------------------------12M-------------------/
/-------------------------------------------------/
/-------------------------------------------------/

/---------------------------------------------/
/----------13M--13-15-17-15M-13-12-----15-12M-/
/-14-12-11-------------------------14M--------/
/---------------------------------------------/
/---------------------------------------------/
/---------------------------------------------/

/------------------------------------------/
/------------------------------------------/
/------------------------------------------/
/--5-5-4-4---------------------------------/
/--3-3-2-2---------------------------------/
/------------------------------------------/

/------------------------------------------/
/------------------------------------------/
/------------------------------------------/
/---9-7-9-9---9-7-9-9---9-7-9-9-9p777------/
/-7---------7---------7--------------------/
/------------------------------------------/

/------------------------------------------/
/------------------------------------------/
/------------------------------------------/
/------------------------------------------/
/-10-10-10-7-7-10-7-7-10-7-7-10------------/
/------------------------------------------/

/-------------------------------------------/
/-------------------------------------------/
/-----7-------7-7-9M-9-7h9-9-7h9--9s12-12-12/
/-7-9---7-7h9-------------------------------/
/-------------------------------------------/
/-------------------------------------------/

/------------------------------------------/
/------------------------------------------/
/-9h12-12s14-14-14-14-12-14M-14-12-14------/
/------------------------------------------/
/------------------------------------------/
/------------------------------------------/

/------------------------------------------/
/-12-15-12-12-15-12-12-15-12-12-15b-15b-15M/
/------------------------------------------/
/------------------------------------------/
/------------------------------------------/
/------------------------------------------/

/------------------------------------------------------------/
/---------------15----------------17M-15---------------------/
/-----------14M-----17M-16-14-16M-------17-16M----14--14-16--/
/-17M-16-17------------------------------------17---17-------/
/------------------------------------------------------------/
/------------------------------------------------------------/
falta una parte se las traigo luego





Calificar esta versión:
Aviso: Este fichero es trabajo propio de su transcriptor y representa su interpretación personal de la canción. El material contenido en esta página es para exclusivo uso privado, por lo que se prohibe su reproducción o retransmisión, así como su uso para fines comerciales.
Más versiones de Rising Fighting Spirit, Naruto
Rising Fighting Spirit
tablatura
Rising Fighting Spirit (ver 2)
tablatura
Descubre más canciones de Naruto