Grief And Sorrow, Naruto (tablatura) (ver 2)

Autor: koky322 | 30821 visualizaciones



e----------7-5-3-0------0
b-----0-1-----------1-3--
g-2--2------------0------
d--2---------------------
a------------------------
E------------------------
==========================
e-0----0-1---------------
b---3-3----1-3-1---1-0-3-
g----2----------2-2------
d----------------3-------
a------------------------
E------------------------

es como la melodia de aprecia lo que tienes de porta 
pero es grief and sorrow naruto entrecortada bueno aqui se la dejo





Calificar esta versión:
Aviso: Este fichero es trabajo propio de su transcriptor y representa su interpretación personal de la canción. El material contenido en esta página es para exclusivo uso privado, por lo que se prohibe su reproducción o retransmisión, así como su uso para fines comerciales.
Más versiones de Grief And Sorrow, Naruto
Grief And Sorrow
tablatura
Grief And Sorrow (ver 2)
tablatura
Grief And Sorrow (ver 3)
tablatura
Descubre más canciones de Naruto