Grief And Sorrow, Naruto (tablatura)

Autor: icar089 | 44544 visualizaciones



Primera parte
e-5----------------------------|
B-5---------------12--10-8--5--|
G-5-------------------------5--|
D-----------9--10-----------5--|
A-------12---------------------|
E----12------------------------|



e--------------------------------------------|
B-------5-8----3-------------1-3-1-----1-0---|
G---5-7--------2--------------------2----0-0-|
D-5------------3-----0-2-3----------3------0-|
A------------------0----------------3--------|
E--------------------------------------------|

e-5----------------------------|
B-5---------------12--10-8--5--|
G-5-------------------------5--|
D-----------9--10-----------5--|
A-------12---------------------|
E----12------------------------|


e----------------------------------------|
B-------5-8----3-------------3-1---------|
G---5-7--------2--------------------2----|
D-5------------3-----0-2-3----------2----|
A------------------0----------------3----|
E----------------------------------------|

e---------------------------------------|
B-----------------------------1-0---0---|
G--------2--0-------2---0--2--------2---|
D-3--3---2--0---2---2---------------2--2|
A-3--5---3--2---5---3-------------------|
E-5--5----------------------------------|

e-----------------------------------5--7---12-|
B---------------------------------0-----------|
G--------2--0--0--0--0-------2----------------|
D-3--3---3--0--2--0--0---4---2----------------|
A-3--5---3--2--2--2--2-------2----------------|
E-5--5----------------------------------------|

e------------------------5--8-7-5-3---3-----------|
B----5--3--1-----5--1-3--3------------5---5--3--0-|
G-2--5--------2--5--------------------5---7--5--0-|
D-2--5--------2--5------------------------7--5--0-|
A-3-----------3-----------------------------------|
E-------------------------------------------------|

e------------------------5--8-7-5-3-5--3-----------|
B----5--3--1-----5--1-3--3-------------5---5--3--0-|
G-2--5--------2--5---------------------5---7--5--0-|
D-2--5--------2--5-------------------------7--5--0-|
A-3-----------3------------------------------------|
E--------------------------------------------------|

e------------------------5--8-7-5-3-5---0---7---5--|
B----5--3--1-----5--1-3--3--------------0-------5--|
G-2--5--------2--5----------------------0---7---0--|
D-2--5--------2--5--------------------------5------|
A-3-----------3------------------------------------|
E--------------------------------------------------|





Comentarios del colaborador: Primera canción que subo, conversión hecha por mi icar089, primera parte despues pondré el final. Saludos y espero que les haya gustado

Calificar esta versión:
Aviso: Este fichero es trabajo propio de su transcriptor y representa su interpretación personal de la canción. El material contenido en esta página es para exclusivo uso privado, por lo que se prohibe su reproducción o retransmisión, así como su uso para fines comerciales.
Más versiones de Grief And Sorrow, Naruto
Grief And Sorrow
tablatura
Grief And Sorrow (ver 2)
tablatura
Grief And Sorrow (ver 3)
tablatura
Descubre más canciones de Naruto