Disenchanted, My Chemical Romance (tablatura) (ver 5)

Autor: anhendrix | 16755 visualizaciones



Intro 
 (Acústica)
E|----------------------------------------------------------------|
B|----3--------3---------3----------------------------------------|
G|---------2--------2---------2-----0---------0---------0---------|
D|---------------------------------------4---------4---------4----|
A|----------------------------------------------------------------|
E|----------------------------------------------------------------|

E|----------------------------------------------------------------|
B|----------------------------------------------------------------|
G|-----0-------2--------0-----------------------------------------|
D|--------------------------------4-------------------------------|
A|----------------------------------------------------------------|
E|----------------------------------------------------------------|





Calificar esta versión:
Aviso: Este fichero es trabajo propio de su transcriptor y representa su interpretación personal de la canción. El material contenido en esta página es para exclusivo uso privado, por lo que se prohibe su reproducción o retransmisión, así como su uso para fines comerciales.
Más versiones de Disenchanted, My Chemical Romance
Disenchanted
acordes
Disenchanted
tablatura
Disenchanted (ver 2)
tablatura
Disenchanted (ver 3)
tablatura
Disenchanted (ver 4)
tablatura
Disenchanted (ver 5)
tablatura
Descubre más canciones de My Chemical Romance