Disenchanted, My Chemical Romance (tablatura) (ver 3)

Autor: darkmoonnight | 20921 visualizaciones



3|-7-7-7----------------------|
4|--7-7-7-5-4-5-4-5-4-5-7-5-4-|x3

3|-7-7-7----------------|
4|--7-7-7-5-4-5-4-5-4-5-|

well I was there on the day
3|-------9-11-9-7-|
4|-7-7-7----------|

they sold the cause for the queen
3|-------9-7-6-7-|
4|-7-7-7---------|

And when the lights all went out
3|-------9-11-9-7-|
4|-7-7-7----------|

We watched our lives on the screen
3|-------9-7-6-7-|
4|-7-7-7---------|

I hate the ending myself
3|-7-7-7-7-------|
4|---------9-9-7-|

but it started with an alright scene
3|--7-7--------------|
4|-5---9-9-7-7-5-7-7-|

It was the roar of the crowd
3|-------9-11-9-7-|
4|-7-7-7----------|

that gave me a heartache to sing
3|-------9-7-6-7-|
4|-7-7-7---------|

It was a lie when they smiled
3|-------9-11-9-7-|
4|-7-7-7----------|

And said, "you won't feel a thing"
3|-------9-7-6-7-|
4|-7-7-7---------|

and as we ran from the cops
3|-11-11-11-11-12-11-9-7-|

We laughed so hard it would sting
3|-11-11-9-7-7-9-11-11-9-|
4|----------4------------|

yeah    yeah        oh
3|-11-9-11-14-11----11-9-7--|
4|------------------------4-|

If i'm so wrong
3|-11-11-9-7-|

how can you listen all night long?
3|-7-7-9-11-12-11-14-11-9----7-6---7--|
4|----------------------------------9-|

And will it matter after I'm gone?
3|-11-11-11-11-11--11-12-11-9-|
4|----------------------------|

Because you never learned a god damned thing
3|-7-7-9-11-12-11-12-11-9--7-7-9-|

you're just a sad song
3|-12-12-12-12-11--11-|

with nothing to say
2|--7-8-8-7-|
3|-7--------|

About a life long
2|-------7-8--7-|
3|-7-7-7--------|

wait for a hospital stay
2|-------7-8-8-7-|
3|-7-7-7---------|

well If you think that i'm wrong
3|-14-14-14-14-12-11----|
4|-------------------12-|

this never meant nothing to you
3|-14-14-12-11-9-7-7-9-|

I spent my high school career
3|-------9-11-9-7-|
4|-7-7-7----------|

Spit on and shoved to agree
3|-------9-7-6-7-|
4|-7-7-7---------|

So I could watch all my heroes
3|-------9-11-9-7-|
4|-7-7-7----------|

Sell a car on tv
3|-------9-7-6-7-|
4|-7-7-7---------|

Bring out the old guillotine
3|-11-11-11-11-12-11-9-7-|

We'll show 'em what we all mean
3|-11-11-9-7-7-9-11-11-9-|
4|----------4------------|

yeah    yeah        oh
3|-11-9-11-14-11----11-9-7--|
4|------------------------4-|

If i'm so wrong
3|-11-11-9-7-|

how can you listen all night long?
3|-7-7-9-11-12-11-14-11-9----7-6---7--|
4|----------------------------------9-|

And will it matter after I'm gone?
3|-11-11-11-11-11--11-12-11-9-|
4|----------------------------|

Because you never learned a god damned thing
3|-7-7-9-11-12-11-12-11-9--7-7-9-|

you're just a sad song
3|-12-12-12-12-11--11-|

with nothing to say
2|--7-8-8-7-|
3|-7--------|

About a life long
2|-------7-8--7-|
3|-7-7-7--------|

wait for a hospital stay
2|-------7-8-8-7-|
3|-7-7-7---------|

well If you think that i'm wrong
3|-14-14-14-14-12-11----|
4|-------------------12-|

this never meant nothing to you
3|-14-14-12-11-9-7-7-9-|

..................
..................
..................
..................

you're just a sad song
3|-12-12-12-12-11--11-|

with nothing to say
2|--7-8-8-7-|
3|-7--------|

About a life long
2|-------7-8--7-|
3|-7-7-7--------|

wait for a hospital stay
2|-------7-8-8-7-|
3|-7-7-7---------|

well If you think that i'm wrong
3|-14-14-14-14-12-11----|
4|-------------------12-|

this never meant nothing to you
3|-14-14-12-11-9-7-7-9-|

you're just a sad song
3|-12-12-12-12-11--11-|

with nothing to say
2|--7-8-8-7-|
3|-7--------|

About a life long
2|-------7-8--7-|
3|-7-7-7--------|

wait for a hospital stay
2|-------7-8-8-7-|
3|-7-7-7---------|

well If you think that i'm wrong
3|-14-14-14-14-12-11----|
4|-------------------12-|

this never meant nothing to you
3|-14-14-12-11-9-7-7-9-|

3|-7-7-7----------------------|
4|--7-7-7-5-4-5-4-5-4-5-7-5-4-|x3

3|-7-7-7------------------|
4|--7-7-7-5-4-5-4-5-4-2-0-|





Calificar esta versión:
Aviso: Este fichero es trabajo propio de su transcriptor y representa su interpretación personal de la canción. El material contenido en esta página es para exclusivo uso privado, por lo que se prohibe su reproducción o retransmisión, así como su uso para fines comerciales.
Más versiones de Disenchanted, My Chemical Romance
Disenchanted
acordes
Disenchanted
tablatura
Disenchanted (ver 2)
tablatura
Disenchanted (ver 3)
tablatura
Disenchanted (ver 4)
tablatura
Disenchanted (ver 5)
tablatura
Descubre más canciones de My Chemical Romance