No Puedo Estar Sin Ti, Moenia (tablatura)

Autor: fherxo | 35728 visualizaciones



INTRO:
     

   Riff1: 
     G              A                  F#m             Bm         A
 e -------------:-------------------:---------------:---------:---------:
 b -------------:-------------------:---------------:---------:---------:
 g ------0------:---------2---------:-------2-------:-------4-:-------2-:
 D ----0---0--0-:-------0---0-------:-----0---0---0-:---4-----:---2-----:
 A --2-------2--:-----4-------4---4-:---4-------4---:-2---5---:-0---4---:
 E -3-----------:---5-----------5---:-2-------------:---------:---------:


    

      G              A                  F#m           Bm   (rasgue)       
 e -------------:-------------------:---------------:-2-:
 b -------------:-------------------:-------0-------:-3-:
 g ------0------:---------2---------:---------------:-4-:
 D ----0---0--0-:-------0---0-------:-----0---0---0-:-4-:
 A --2-------2--:-----4-------4---4-:---4-------4---:-2-:
 E -3-----------:---5-----------5---:-2-------------:---:

 
Toca el Riff 1 durante el verso igual como esta arriba... puse los 
acordes para que no se pierdan y sepan que seccion del riff 
concuerda con cada phrase.
  

  Riff1:
   
    G      A    F#m    Bm  A    G
   Aqui estoy, veo la lluvia caer
        
         A    F#m           Bm    A    G
   Y parece, que este día, no termina

              A    F#m           Bm      A       G
   Aqui yo estoy, preguntandome hasta cuando podran

   
         A      F#m    Bm
   Estas fotos salvarme.

  
  
 CORO:(con rasgueo) 

  Bm               G              A                 F#m      Bm   A 
   Y es que ya no aguanto, te exyraño, No puedo estar sin ti

       G                A           F#m              Bm     A
   Estar esperando, me hace daño, no puedo estar sin ti...


   G A F#m Bm A
   G A F#m Bm 


  Riff1:
   

    G       A        F#m    Bm  A     G
  Y miro al viento, su caricia y amor
  

           A        F#m           Bm    A          G
   Un sentimiento, que me habla pero, no lo entiendo


             A                  F#m        Bm    A       G
   Ya se que no (ya se que no), soy el que tiene la razón


           A     F#m     Bm
   Pero no puedo haceptarlo...

   

   Repetir CORO:


   SOLO:
     G  A  F#m  Bm A
     G  A  F#m  Bm A
 
Y terminas con el coro despues de tocar el acorde G





Calificar esta versión:
Aviso: Este fichero es trabajo propio de su transcriptor y representa su interpretación personal de la canción. El material contenido en esta página es para exclusivo uso privado, por lo que se prohibe su reproducción o retransmisión, así como su uso para fines comerciales.
Más versiones de No Puedo Estar Sin Ti, Moenia
No Puedo Estar Sin Ti
acordes
No Puedo Estar Sin Ti
tablatura
Descubre más canciones de Moenia