Helena, Misfits (tablatura) (ver 2)

Autor: juan manuel martinez marin | 15594 visualizaciones

esta es mi primera transcripccion disfrutenla saludos a todos los kabulas del cbtis 50

3/------4----*----4----------------4-4
4/---6--4--4-*-2--4--4--2-2-2-4-6--4-4
5/---6--2--4-*-2--2--4--2-2-2-4-6--2-4
6/---4-----2-*-4-----2--0-0-0-2-4----2
 desde los asteriscos se repite como 15 veces 

 este riff se repite dos veces y va rapido
riff 1
6/--0-1-10-0-8-10--7-8-5-7-3-5-

este otro riff  va despues del anterior igual va rapido
riff 2
6/--0-7-8-10-8-7-5-7-8--0-7-8-10-8-8--8-8-7 
igual quel an terior se repite dos veces

3/------7-----7---------------7-7-5-7-
4/---2--7--2--7--2---2-5-3-2--7-7-5-7- esta parte la llamaremos 
5/---2--5--2--5--2---2-5-3-2--5-5-3-5-verso se repite dos veces
6/---0-----0-----0---0-3-1-0----------

aqui va el riff 1

a qui va el verso

5/-------5-----------------3---
6/---0-1---0--3-5-2-3--0-2---0-

5/-------------3-------3-2---3-0-2-
6/---2---0-2-3-----0-2-------------

y otra ves va el intro 
Calificar esta versión:
Aviso: Este fichero es trabajo propio de su transcriptor y representa su interpretación personal de la canción. El material contenido en esta página es para exclusivo uso privado, por lo que se prohibe su reproducción o retransmisión, así como su uso para fines comerciales.
Más versiones de Helena, Misfits
Helena
tablatura
Helena (ver 2)
tablatura
Descubre más canciones de Misfits