Obsesion, Miguel Mateos (tablatura) (ver 2)

Autor: Anónimo | 28619 visualizaciones



Para los fanáticos de Miguel Mateos aquí les dejo una joyita de partitura
con el solo completo de Obsesión versión Salir Vivo para guitarra.


*Solo de mitad de tema:
(siempre sobre la base de la estrofa)

  G                        Em                 C 
e-----------------------------------------------------|
b-----------------------------------12-13-12----------|
g-12-11-12-14-12-11-14-12--11-12-14-------------14-12-|
D--------------------------------------------14-------|
A-----------------------------------------------------|
E-----------------------------------------------------|
  G                         Em                                    C 
e-------------------------|-----------------14-12-----------------------|
b-------------------------|-----------------------14-12-14-12-----------|
g-12-11-12-14-12-11-14>---|-------------12--------------------14-12-----|
D----------------------14-|-------12-14------------------------------14-|
A-------------------------|-12-14---------------------------------------|
E-------------------------|---------------------------------------------|

Referencia: 14> = estirar

(continúa con el bridge)
G                  C                D
Es imposible mi amor tanta pena y dolor
      C              D
nos haya sido impuesta...

(vuelve al estribillo)

*Solo del final:

 G                        Em                 C 
e-----------------------------------------------------|
b-----------------------------------12-13-12----------|
g-12-11-12-14-12-11-14-12--11-12-14-------------14-12-|
D--------------------------------------------14-------|
A-----------------------------------------------------|
E-----------------------------------------------------|

 G                                 Em                     
e----------------------------------------------------------------|
b---------------------------(más lento)---------13>-12-----------|
g-12-11-12-14-12-11-14-12-------------11-12-14-------------14-12-|
D-------------------------------------------------------14-------|
A----------------------------------------------------------------|
E----------------------------------------------------------------|
                                                Em
e-14>--12/13/12/14/12-----------------------------------|
b---------------------14/12/13/12-----------------------|
g---------------------------------14-12-----------------|
D---------------------------------------14'-----14------|
A-------------------------------------------------------|
E-------------------------------------------------------|

Referencias: 
> = estirar
12/13/12/14/12= juega con los dedos índice, medio y anular rápidamente,
sube haciendo escala en mi(Em).
14'= vibrato


Querían más? dudo que se encuentren partituras explicadas como esta.
El resto de letra y acordes saquenlo de la partitura anterior
Saludos desde Argentina... 
Sugerencias, dudas? Escriban a [email protected]





Calificar esta versión:
Aviso: Este fichero es trabajo propio de su transcriptor y representa su interpretación personal de la canción. El material contenido en esta página es para exclusivo uso privado, por lo que se prohibe su reproducción o retransmisión, así como su uso para fines comerciales.
Más versiones de Obsesion, Miguel Mateos
Obsesion
acordes
Obsesion
tablatura
Obsesion (ver 2)
tablatura
Descubre más canciones de Miguel Mateos