Obsesion, Miguel Mateos (tablatura)

Autor: Anónimo | 33999 visualizaciones



Esta es la version acustica espero les guste y es mi primer transcripsion
asi que no esta muy correcta falta el ultimo caho del solo y en el intro
echenle sentimiento improvisen ;)


Intro:
e------------2----3---2---------------------2------3---2------------------
B-------3-------------------3---------3-------------------3---------3-----
G--0-----------------------------0-----------------------------0----------
D-------------------------------------------------------------------------
A-------------------------------------------------------------------------
E-------------------------------------------------------------------------

e---2----3----5----3------2---------------
B-------------------------------3----3/5--
G-----------------------------------------
D-----------------------------------------
E-----------------------------------------
       MIm              DO
  Tan sólo dime que me amas y dejaré de aullarle a la luna
SOL                       MIm       DO
  Entiendes mucho más que yo a este mundo y sus criaturas

SOL            DO                     RE
  Arráncame el corazón, sácame de este lugar
  DO       SOL        DO              RE
Y llévame muy lejos, rodéame de espejos
       DO               RE
quiero ver sólo tu reflejo

DO        RE                DO                   RE
Obsesión, obsesión, una burla del destino te puso en mi camino
DO        RE        DO             RE                      SOL
Obsesión, Obsesión, cuando no estás conmigo tú eres mi obsesión


Que tu rabioso corazón me muestre todos los secretos
Y que tu efecto dominó derribe todos mis miedos

Es imposible, mi amor, que tanta pena y dolor
Nos haya sido impuesto por Dios o por quien sea
Hay que darle pelea, eres mi

Obsesión, obsesión, una burla del destino te puso en mi camino
Obsesión, Obsesión, cuando no estás conmigo tú eres mi obsesión


   Solo:
e-----------------------------------------------------------------------
B-----------------------------------------------------------------------
G--12----11----12----12/14---12----11----14----12----11----12----14-----
D-----------------------------------------------------------------------
A-----------------------------------------------------------------------
E-----------------------------------------------------------------------

e-----------------------------------------
B----------12------------------------------
G------14----12----9~----12/14------12-----
D------------------------------------------
E------------------------------------------

e---------------------------------------------------
B---------------------------------------------------
G---------------------------------------------------
A---7---9----10----12------10----9----10----5 /7----
E---------------------------------------------------

e----------------------------------------------------------
B----------------------------------------------------------
G-----------en esta parte falta un cahote espero lo saquen-
D----------------------------------------------------------
E----------------------------------------------------------


Es imposible, mi amor, que tanta pena y dolor
Nos haya sido impuesto por Dios o por quien sea
Hay que darle pelea, eres mi

Obsesión, obsesión, una burla del destino te puso en mi camino
Obsesión, Obsesión, cuando no estás conmigo tú eres mi obsesión

Obsesión, obsesión, una burla del destino te puso en mi camino
Obsesión, Obsesión, cuando no estás conmigo tú eres mi obsesión



RE: pueden tocarla normal o como según
                        E A D G B E
yo la toca Miguel, D11: 5,5,4,0,3,0

Nota: los acordes los saque de
otra trnscripsion de Francisco Maldonado Ulloa





Calificar esta versión:
Aviso: Este fichero es trabajo propio de su transcriptor y representa su interpretación personal de la canción. El material contenido en esta página es para exclusivo uso privado, por lo que se prohibe su reproducción o retransmisión, así como su uso para fines comerciales.
Más versiones de Obsesion, Miguel Mateos
Obsesion
acordes
Obsesion
tablatura
Obsesion (ver 2)
tablatura
Descubre más canciones de Miguel Mateos