Cuando Seas Grande, Miguel Mateos (tablatura) (ver 2)

Autor: Anónimo | 27088 visualizaciones



Esto es lo que tengo, espero y les sirva.

Intro (Distorsión)
e-------------------------------------------------------------
B-------------------------------------------------------------
G-------------------------------------------------------------
D--9-9-9-9-8-6--6-4-6-8---/9-9-9-9--8-6--4--2-----------------
A--9-9-9-9-9-7--7-4-7-9---/9-9-9-9--9-7--4--2-----------------
E-------------------------------------------------------------

Verso (Sigan los acordes)
     Soy  un chico de la   calle 
e-------------------------------------------------------------
B-------------------------------------------------------------
G---------------------------4--4--4--4------------------------ 
D--9-9-9-9-9-9-9-9-9-9-9----4--4--4--4------------------------ 
A--7-7-7-7-7-7-7-7-7-7-7----2--2--2--2------------------------
E-------------------------------------------------------------
         E (Pm)                  B
 Camino a la ciudad con mi guitarra sin molestar a nadie
e--------------------------------------------------------------
B--------------------------------------------------------------
G--------------------------------------------------------------
D--9-9-9-9-9-9-9-9-9-9-9----2-2-2-2-2-2-2-2-2---4-4-4-4-4-4-4--
A--7-7-7-7-7-7-7-7-7-7-7----0-0-0-0-0-0-0-0-0---2-2-2-2-2-2-2--
E--------------------------------------------------------------
            E (Pm)                  A (Pm)           B  (Pm)

Los demas versos van mas o menos igual

Pre-coro
Pero Pierdo el control Llego a casa...(Pm) Siempre la misma cancion   
e------------------------------------------------------------
B------------------------------------------------------------
G--------------------------------------9-9-9--2-2-2--4-4-4---
D--2-2-2-2--4-4-4-4--2-2-2-2--4-4-4-4--9-9-9--2-2-2--4-4-4---
A--0-0-0-0--2-2-2-2--0-0-0-0--2-2-2-2--7-7-7--0-0-0--2-2-2---
E------------------------------------------------------------
     A          B         A         B        E       A       B

Coro
Nene Nene que vas a ser Cuando seas    grande
e----------------------------------------------------------------
B----------------------------------------------------------------
G--9-9-9-9-9-9-9-9-9-9-9-9-9-9-9-9-9---2-2-2-2-2-2-2-----4-------
D--9-9-9-9-9-9-9-9-9-9-9-9-9-9-9-9-9---2-2-2-2-2-2-2-----4-------
A--7-7-7-7-7-7-7-7-7-7-7-7-7-7-7-7-7---0-0-0-0-0-0-2-----2-------
E----------------------------------------------------------------
          E                                A               B

Nene Nene que vas a ser Cuando seas    grande
e----------------------------------------------------------------
B----------------------------------------------------------------
G--9-9-9-9-9-9-9-9-9-9-9-9-9-9-9-9-9---2-2-2-2-2-2-2-----4-------
D--9-9-9-9-9-9-9-9-9-9-9-9-9-9-9-9-9---2-2-2-2-2-2-2-----4-------
A--7-7-7-7-7-7-7-7-7-7-7-7-7-7-7-7-7---0-0-0-0-0-0-0-----2-------
E----------------------------------------------------------------
              E                             A              B

 Estrella del Rockn´roll      Presidente de la nacion      
e-------------------------------------------------------------
B-------------------------------------------------------------
G--2-2-2-2-2-2-2--4-4-4-4-4--2-2-2-2-2-2-2-2--4-4-4-4-4-4-4-4-
D--2-2-2-2-2-2-2--4-4-4-4-4--2-2-2-2-2-2-2-2--4-4-4-4-4-4-4-4-
A--0-0-0-0-0-0-0--2-2-2-2-2--0-0-0-0-0-0-0-0--2-2-2-2-2-2-2-2-
E-------------------------------------------------------------
        A              B              A               B

Nene nene que vas a hacer cuando  alguien apriete el boton
e-------------------------------------------------------------
B-------------------------------------------------------------
G--9-9-9-9-9-9-9-9-9-9-9-9-9-9-9-----5--------7-------9-------
D--9-9-9-9-9-9-9-9-9-9-9-9-9-9-9-----5--------7-------9-------
A--7-7-7-7-7-7-7-7-7-7-7-7-7-7-7-----3--------5-------7-------
E-------------------------------------------------------------
             E                        C         D        E

Solo(Distorsión)

e-----------------------------------------------7----7--
B--------------------------------------7h9p7-7---7------
G----8h9p8--------------4h6p4---------------------------
D----------9------4h6-----------------------------------
A---------------7---------------------------------------
E-------------------------------------------------------

e-----12--14--16--14-16--17-16-17-19b21-19--17-16---------
B-/12-----------------------------------------------------
G---------------------------------------------------------
D---------------------------------------------------------
A---------------------------------------------------------
E---------------------------------------------------------

e-19-16-17-19-17/16--17-14-16-17-16/14--16-12-14-16-14/12-
B---------------------------------------------------------
G---------------------------------------------------------
D---------------------------------------------------------
A---------------------------------------------------------
E---------------------------------------------------------

e-14-11-12-14-12/11-12-11b12------------------------------
B---------------------------------------------------------
G---------------------------------------------------------
D---------------------------------------------------------
A---------------------------------------------------------
E---------------------------------------------------------

El solo no quedo exacto, de hecho esta basado en el tab de 
Daniel Ramirez Peña, que esta con el nombre de intértprete 
de Laureano Brizuela. Si mejoro el solo se los mando.





Calificar esta versión:
Aviso: Este fichero es trabajo propio de su transcriptor y representa su interpretación personal de la canción. El material contenido en esta página es para exclusivo uso privado, por lo que se prohibe su reproducción o retransmisión, así como su uso para fines comerciales.
Más versiones de Cuando Seas Grande, Miguel Mateos
Cuando Seas Grande
acordes
Cuando Seas Grande
tablatura
Cuando Seas Grande (ver 2)
tablatura
Descubre más canciones de Miguel Mateos