Cuando Seas Grande, Miguel Mateos (tablatura)

Autor: Anónimo | 46597 visualizaciones



INTRO

E-------------------------------|-----------------------------
B---9-9-9-7---5--5-5-5-5-7------|-7/9-9-9--7--5---------------
G---9-9-9-8---6--6-6-6-6-8------|-8/9-9-9--8--6----8---6------
D-------------------------------|------------------9---7------
A-------------------------------|-----------------------------
E-------------------------------|-----------------------------


E-------------------------------|-----------------------------
B---9-9-9-7---5--5-5-5-5/7------|-7/9-9-9--7--5---------------
G---9-9-9-8---6--6-6-6-6/8------|-8/9-9-9--8--6----6---8------
D-------------------------------|------------------7---9------
A-------------------------------|-----------------------------
E-------------------------------|-----------------------------


E5
Soy,
                B5
un chico de la calle
          E5                    B5
camino a la ciudad con mi guitarra
                  A5  RIFF1
sin molestar a nadie.


RIFF 1
E-------------------------------|--------------------------
B------7-9----7-9---------------|--------------------------
G----9------9-------------------|--------------------------
D-------------------------------|--------------------------
A-------------------------------|--------------------------
E-------------------------------|--------------------------


E5
Voy,
             B5
rompiendo cadenas
         E5                     B5
estoy creciendo contra la miseria
                A   RIFF 1
y una que otra pena.

A5                    B5
Pero pierdo el control
A5                 B5
llego a casa y escucho su voz
   RIFF  2
siempre la misma cancion.

RIFF 2
    A5        E5         B5
E-------------------------------|--------------------------
B-------------------------------|--------------------------
G--9--8--6----------------------|--------------------------
D------------9--7--6------------|--------------------------
A---------------------9---------|--------------------------
E-------------------------------|--------------------------





CORO:
E5                      B5
Nene, nene que vas a hacer
              A5
cuando seas grande
E5                      B5
Nene, nene que vas a hacer
              A5
cuando seas grande
E5                      B
estrella de rock and roll
      A5              B5
presidente de la nacion
E5               B5
nene, nene que vas a hacer
       C5     A.H.     D5   A.H     E5
cuando alguien apriete el botón.



               A.H
E-------------------------------|
B--------------5----------------|
G-------------------------------|          A.H. (ARMONICO ARTIFICIAL)
D-------------------------------|
A-------------------------------|
E-------------------------------|





E
Estoy
             B5
casi condenado
E5                     B5
a ser el exito para no ser
A5               RIFF 1
un perro fracasado.

E5
Asi
                 B5
asi yo te he enseñado
   E5                     B5
generaciones tras generaciones
A5              RIFF1
marchan a mi lado.

A5              B5
solo quiero jugar
A5              B5
soy el sueño de mama y papa
   RIFF 2
yo no les puedo fallar.
CORO


SOLO

E-------------------------------|-----------------------------
B---9-9-9-7---5--5-5-5-5-7------|-7/9-9-9--7--5---------------
G---9-9-9-8---6--6-6-6-6-8------|-8/9-9-9--8--6----8---6------
D-------------------------------|------------------9---7------
A-------------------------------|-----------------------------
E-------------------------------|-----------------------------


E-------------------------------|-----------------------------
B---9-9-9-7---5--5-5-5-5/7------|-7/9-9-9--7--5---------------
G---9-9-9-8---6--6-6-6-6/8------|-8/9-9-9--8--6----6---8------
D-------------------------------|------------------7---9------
A-------------------------------|-----------------------------
E-------------------------------|-----------------------------


E----------------------7--|------------------------------7--------
B----------------/9-7-----|--9-7-----------7-7B-------------9-7--9
G-/9-8--------------------|-------9------9------------------------
D------9------------------|-------------9-------------------------
A-------------------------|---------------------------------------
E-------------------------|---------------------------------------


E----------7------------12--14-|----16----16-----19B--------------
B-------7-9---9-7-9---12-------|-19B--19B----19B--------17--------
G-----9------------------------|----------------------------------
D---/9-------------------------|----------------------------------
A------------------------------|----------------------------------
E------------------------------|----------------------------------


CORO






B =(BEND)





Calificar esta versión:
Aviso: Este fichero es trabajo propio de su transcriptor y representa su interpretación personal de la canción. El material contenido en esta página es para exclusivo uso privado, por lo que se prohibe su reproducción o retransmisión, así como su uso para fines comerciales.
Más versiones de Cuando Seas Grande, Miguel Mateos
Cuando Seas Grande
acordes
Cuando Seas Grande
tablatura
Cuando Seas Grande (ver 2)
tablatura
Descubre más canciones de Miguel Mateos