Billi Jean, Michael Jackson (tablatura) (ver 2)

Autor: 1sm4el | 46442 visualizaciones



lleva capo en el 2do traste


e-------------------3-----------------3---------------3-----    
B---3-5-0--3-5-3-0----0-5-0--3-5-3-0----0-5-0--3-5-3----0---
G-----------------------------------------------------------
D-----------------------------------------------------------
A-----------------------------------------------------------
E-----------------------------------------------------------


e----------------------
B-2---4----5----4------
G-2---4----6----4------
D----------------------
A----------------------
E----------------------


espero que les guste





Calificar esta versión:
Aviso: Este fichero es trabajo propio de su transcriptor y representa su interpretación personal de la canción. El material contenido en esta página es para exclusivo uso privado, por lo que se prohibe su reproducción o retransmisión, así como su uso para fines comerciales.
Más versiones de Billi Jean, Michael Jackson
Billi Jean
tablatura
Billi Jean (ver 2)
tablatura
Descubre más canciones de Michael Jackson