Enter Sandman, Metallica (tablatura) (ver 8)

Autor: AGUS GP | 27505 visualizaciones

  

 Enter Sandman - Metallica

 Tab por: ANJI CHRISST - (Argentina) - (Agustin Ibarra)

 Viva el buen metal!!!!!!


 
 Intro (con acústica):

 E|-----------------|
 B|-----------------|
 G|-----0-------0---|
 D|---2-------------|
 A|-------1-0-------|
 E|-0---------------|


 Kirk hace esto con Wah (rasgeado) :

 E|--0-------------|
 B|--0-------------|
 G|--0-------------|
 D|----------------|
 A|----------------|
 E|----------------|

 
 Distorsión (todo bien muteado):


 E|----------------------|
 B|----------------------|
 G|----------------------|
 D|-2--------------0p2---|
 A|-2--2-2-2-2-2-2-------|
 E|-0--0-0-0-0-0-0-------| x4

 p.m   . . . . . .


 E|-------------------------|
 B|-------------------------|
 G|-------------------------|
 D|-0p2------2--------------|
 A|-----2-2-----1-0--2-2----|
 E|-----0-0----------0-0----| x8

 p.m    . . . . . . .

 Distosión sin mutear:

 E|---------------------|
 B|---------------------|
 G|---------------------|
 D|--2--2---2-----------|
 A|--2--2------1-0------|
 E|--0--0---------------|x3

 E|----------------------|
 B|----------------------|
 G|----------------------|
 D|--5-------------------|
 A|--5----4---5-7-5-4-2--|
 E|--3--0-2-0-3-5-3-2-0--|

 p.m    . . . . . . .

 E|---------------------|
 B|---------------------|
 G|---------------------|
 D|--2--2---2-----------|
 A|--2--2------1-0------|
 E|--0--0---------------|x3

 E|----------------------|
 B|----------------------|
 G|----------------------|
 D|--5-------------------|
 A|--5----4---5-7-5-4-2--|
 E|--3--0-2-0-3-5-3-2-0--|

 p.m    . . . . . . .

 ESTROFA:

  
  Say your prayers, little one.... 

 E|----------------------|
 B|----------------------|
 G|----------------------|
 D|-2--------------0p2---|
 A|-2--2-2-2-2-2-2-------|
 E|-0--0-0-0-0-0-0-------| X3
 
 

 E|----------------------|
 B|----------------------|
 G|----------------------|
 D|--5-------------------|
 A|--5----4---5-7-5-4-2--|
 E|--3--0-2-0-3-5-3-2-0--|


 PRE-ESTRIBILLO (dejar sonar):

 E|-----------------|
 B|-----------------|
 G|-----2-------2---|
 D|---4-------------|
 A|-------4-3-------|
 E|-2---------------|x4


 ESTRIBILLO:

 E|-----------------|
 B|-----------------|
 G|-----2-------2---|
 D|---4-------------|
 A|-------4-3-------|
 E|-2---------------|x3

 E|----------------------|
 B|----------------------|
 G|----------------------|
 D|-2--------------------|
 A|-2--2-2-2-2-2-2-2-----|
 E|-0--0-0-0-0-0-0-0-----|

 E|-----------------|
 B|-----------------|
 G|-----2-------2---|
 D|---4-------------|
 A|-------4-3-------|
 E|-2---------------|

 E|----------------------|
 B|----------------------|
 G|----------------------|
 D|-2--------------------|
 A|-2--2-2-2-2-2-2-2-----|
 E|-0--0-0-0-0-0-0-0-----|

 E|----------------------|
 B|----------------------|
 G|----------------------|
 D|--5-------------------|
 A|--5----4---5-7-5-4-2--|
 E|--3--0-2-0-3-5-3-2-0--|

 SOLO:

 E|------------------------------------------------------------------------|
 B|--15----15--15---x-15----15---------------15b---------------------------|
 G|--14b---14b-14b--x-14b---14b--12p14p12----------12-12-12b-12hb12hb12rb--|
 D|---------------------------------------14-------------------------------|
 A|------------------------------------------------------------------------|
 E|------------------------------------------------------------------------|


 E|----------------------------------------------------------12---12---12--|
 B|-------------------------------------------------------15b--15b--15b----|
 G|-12-12-12b-12hb12hb12rb-12-12-14b-12------------------------------------|
 D|-------------------------------------14-12-------12-14------------------|
 A|-------------------------------------------14-12------------------------|
 E|------------------------------------------------------------------------|

           (Muy rápido)

 E|----12---12h15p12--12h15p12--12h15p12--12h15p12--12h15p12--12h15p12--12-|
 B|-15b---15--------15--------15--------15--------15--------15--------15---|
 G|------------------------------------------------------------------------|
 D|------------------------------------------------------------------------|
 A|------------------------------------------------------------------------|
 E|------------------------------------------------------------------------|


 E|-17p14--17p14--17p14-19p15--19p15--19p15-21p17--21p17--21p17-22b--------|
 B|------15-----15-----------17-----17-----------19-----19-----------9b-9b-|
 G|------------------------------------------------------------------9b-9b-|
 D|------------------------------------------------------------------------|
 A|------------------------------------------------------------------------|
 E|------------------------------------------------------------------------|

                         Aca conviene improvisar en F# xque no esta exacto

 E|-------------------7~-7-5-4-5-7-5h7p5p4h5p4p2h4p2-------------------------|
 B|-9b--9b-------------------------------------------5p4p2-------------------|
 G|-9b--9b-7--------7-------------------------------------5p4p2-2h4p2--------|
 D|----------9~-7p9--------------------------------------------4------4-2----|
 A|-----------------------------------------------------------------------4~-|
 E|--------------------------------------------------------------------------|


 E|-----------------------------------------------------------------------|
 B|-----------------------------------------------------------------------|
 G|----2h4-16b-14----14p16-16b-14-----14p16-16b-14-----14p16-16b-14-------|
 D|-2h4-----------16~-------------16~--------------16~--------------16~---|
 A|-----------------------------------------------------------------------|
 E|-----------------------------------------------------------------------|


 E|------------------------------------------------------|
 B|----------17----17----17----17----17------------------|
 G|-14p16-16b---16b---16b---16b---16b----16hb-----rb16~--|
 D|------------------------------------------------------|
 A|------------------------------------------------------|
 E|------------------------------------------------------|


 E|-21-17-0-0-21-17-0-0-21-17-0-0-21-17-0-0-21-17-0-0-21-17-0-0-22b*------|
 B|-----------------------------------------------------------------------|
 G|-----------------------------------------------------------------------|
 D|-----------------------------------------------------------------------|
 A|-----------------------------------------------------------------------|
 E|-----------------------------------------------------------------------|


 E|-------------------------------|---------------------------||
 B|-------10-8-7------------------|---------------------------||
 G|--------------9--9-7-----------|---------------------------||
 D|---------------------9--9-7-5--|--9-5----------------------||
 A|-------------------------------|------7~-------------------||
 E|-------------------------------|---------------------------||


                                                 kplu_punk@hotmail.com

Comentarios del colaborador: le puse enter sandman 2 por si no no me dejaba ponerlo`

Calificar esta versión:
Aviso: Este fichero es trabajo propio de su transcriptor y representa su interpretación personal de la canción. El material contenido en esta página es para exclusivo uso privado, por lo que se prohibe su reproducción o retransmisión, así como su uso para fines comerciales.
Más versiones de Enter Sandman, Metallica
Enter Sandman
tablatura
Enter Sandman (ver 2)
tablatura
Enter Sandman (ver 3)
tablatura
Enter Sandman (ver 4)
tablatura
Enter Sandman (ver 5)
tablatura
Enter Sandman (ver 6)
tablatura
Enter Sandman (ver 7)
tablatura
Enter Sandman (ver 8)
tablatura
Enter Sandman
bajo
Enter Sandman
bateria
Enter Sandman (ver 2)
bateria
Enter Sandman
video guitarra
Descubre más canciones de Metallica