Enter Sandman, Metallica (tablatura) (ver 3)

Autor: facuok | 29637 visualizaciones

   Todos los riff solo la primera vez van las veces que les indico

 Riff1             riff2          riff3
11                          4                   4
|-----------------|------------------|-----------------|
|-----------------|------------------|-----------------|
|----0------------|------------------|-----------------|
|--2----------2---|------------------|-----------------|        
|-------3--2------|-2-2-2-2-2-2-2-2a3|--4-3-2-2-2-2a0--|
|-0---------------|-0-0-0-0-0-0-0-0--|--2-1-0-0-0-0----|


riff4              riff5             

  6       
|-----------------|-----------------|
|-----------------|-----------------|
|-----------------|-------2---------|
|-----------------|----4-----------4|        
|5-2-3-2-2-2-2a0--|----------3---2--|
|3-4-1-0-0-0-0----|-2---------------|



riff 1,2,3,4y1
Say your prayers little one        riff 2
Don't forget my son
To include everyone

Tuck you in, warm within
Keep you free from sin            riff2
Till the sandman he comes

Sleep with one eye open          riff 5
Gripping your pillow tight         

Chorus:
Exit: light                            riff 2
Enter: night                               
Take my hand
We're off to never never land

Something's wrong, shut the light
Heavy thoughts tonight                 riff 2
And they aren't of Snow White

Dreams of war, dreams of liars    riff 2
Dreams of dragon's fire
And of things that will bite

Sleep with one eye open
Gripping your pillow tight            riff 5

(Chorus) riff 2

Now I lay me down to sleep
Pray the lord my soul to keep       riff 5
If I die before I wake
Pray the lord my soul to take

Hush little baby, don't say a word
And never mind that noise you heard   riff 5
It's just the beasts under your bed
In your closet, in your head

Exit: light
Enter: night
Grain of sand   riff22

(chorus)riff 2
Take my hand  riff 1,2,3
We're off to never never land

Comentarios del colaborador: esta re buena

Calificar esta versión:
Aviso: Este fichero es trabajo propio de su transcriptor y representa su interpretación personal de la canción. El material contenido en esta página es para exclusivo uso privado, por lo que se prohibe su reproducción o retransmisión, así como su uso para fines comerciales.
Más versiones de Enter Sandman, Metallica
Enter Sandman
tablatura
Enter Sandman (ver 2)
tablatura
Enter Sandman (ver 3)
tablatura
Enter Sandman (ver 4)
tablatura
Enter Sandman (ver 5)
tablatura
Enter Sandman (ver 6)
tablatura
Enter Sandman (ver 7)
tablatura
Enter Sandman (ver 8)
tablatura
Enter Sandman
bajo
Enter Sandman
bateria
Enter Sandman (ver 2)
bateria
Enter Sandman
video guitarra
Descubre más canciones de Metallica