Die Die My Darling, Metallica (tablatura) (ver 2)

Autor: vamdinfer | 16379 visualizaciones

Die, Die My Darling
intro
|-----------------------------------|
|-----------------------------------|
|--4x-4x-4x-4x-4x-4x-4x-4x----------|
|--4x-4x-4x-4x-4x-4x-4x-4x-5---4----|
|--2x-2x-2x-2x-2x-2x-2x-2x-5---4----|
|--------------------------3---2----|
Verso
Die, die, die my Darling
|-----------------------------------|
|-----------------------------------|
|--4x-4x-4x-4x-4x-4x-4x-4x----------|
|--4x-4x-4x-4x-4x-4x-4x-4x-5---4----|
|--2x-2x-2x-2x-2x-2x-2x-2x-5---4----|
|--------------------------3---2----|
Die, die, die my darling
|------------------------------------|
|------------------------------------|
|--4x-4x-4x-4x-4x-4x-4x-4x-----------|
|--4x-4x-4x-4x-4x-4x-4x-4x-5---4---2-|
|--2x-2x-2x-2x-2x-2x-2x-2x-5---4---2-|
|--------------------------3---2---0-|

|----------------------------------|
|----------------------------------|
|-4--4-4-4-4-4-4-4-4-4-4-4-4-4-4---|
|-4--4-4-4-4-4-4-4-4-4-4-4-4-4-4-2-|
|-2--2-2-2-2-2-2-2-2-2-2-2-2-2-2-2-|
|--------------------------------0-|

|----------------------|
|----------------------|
|----------------------|
|-----------------5x---|
|-5-5-5-5-5-5-5-5-5x---|
|-3-3-3-3-3-3-3-3-3x---|

|--------------------------------|
|--------------------------------|
|-4--4-4-4-4-4-4-4-4-4-4-4-4-4-4-|
|-4--4-4-4-4-4-4-4-4-4-4-4-4-4-4-|
|-2--2-2-2-2-2-2-2-2-2-2-2-2-2-2-|
|--------------------------------|
Chorus x5
|--------------------------------|
|--------------------------------|
|-----------------7--7-7-7-7-7-7-|
|-5--5-5-5-5-5-5--7--7-7-7-7-7-7-|
|-5--5-5-5-5-5-5--5--5-5-5-5-5-5-|
|-3--3-3-3-3-3-3-----------------|

|--------------------------------|
|--------------------------------|

|-4--4-4-4-4-4-4-4-4-4-4-4-4-4-4-|
|-4--4-4-4-4-4-4-4-4-4-4-4-4-4-4-|
|-2--2-2-2-2-2-2-2-2-2-2-2-2-2-2-|
|--------------------------------|
Al finalizar chorus
|--------------------------------|
|--------------------------------|
|-----------------7--7-7-6-7-6-4-|
|-5--5-5-5-5-5-5--7--7-7-6-7-6-4-|
|-5--5-5-5-5-5-5--5--5-5-4-5-4-2-|
|-3--3-3-3-3-3-3-----------------|
Verso
|-----------------------------------|
|-----------------------------------|
|--4x-4x-4x-4x-4x-4x-4x-4x----------|
|--4x-4x-4x-4x-4x-4x-4x-4x-5---4----|
|--2x-2x-2x-2x-2x-2x-2x-2x-5---4----|
|--------------------------3---2----|

|------------------------------------|
|------------------------------------|
|--4x-4x-4x-4x-4x-4x-4x-4x-----------|
|--4x-4x-4x-4x-4x-4x-4x-4x-5---4---2-|
|--2x-2x-2x-2x-2x-2x-2x-2x-5---4---2-|
|--------------------------3---2---0-|

|----------------------------------|
|----------------------------------|
|-4--4-4-4-4-4-4-4-4-4-4-4-4-4-4---|
|-4--4-4-4-4-4-4-4-4-4-4-4-4-4-4-2-|
|-2--2-2-2-2-2-2-2-2-2-2-2-2-2-2-2-|
|--------------------------------0-|




|---------------------------------|
|---------------------------------|
|---------------------------------|
|---------5-5-5-5-5-5-5-5-5-5-5-5-|
|-5-5-5-5-5-5-5-5-5-5-5-5-5-5-5-5-|
|-3-3-3-3-3-3-3-3-3-3-3-3-3-3-3-3-|
Chorus x6
|--------------------------------|
|--------------------------------|
|-4--4-4-4-4-4-4-4-4-4-4-4-4-4-4-|
|-4--4-4-4-4-4-4-4-4-4-4-4-4-4-4-|
|-2--2-2-2-2-2-2-2-2-2-2-2-2-2-2-|
|--------------------------------|

|--------------------------------|
|--------------------------------|
|-----------------7--7-7-7-7-7-7-|
|-5--5-5-5-5-5-5--7--7-7-7-7-7-7-|
|-5--5-5-5-5-5-5--5--5-5-5-5-5-5-|
|-3--3-3-3-3-3-3-----------------|
verso
|-----------------------------------|
|-----------------------------------|
|--4x-4x-4x-4x-4x-4x-4x-4x----------|
|--4x-4x-4x-4x-4x-4x-4x-4x-5---4----|
|--2x-2x-2x-2x-2x-2x-2x-2x-5---4----|
|--------------------------3---2----|

|------------------------------------|
|------------------------------------|
|--4x-4x-4x-4x-4x-4x-4x-4x-----------|
|--4x-4x-4x-4x-4x-4x-4x-4x-5---4---2-|
|--2x-2x-2x-2x-2x-2x-2x-2x-5---4---2-|
|--------------------------3---2---0-|
|----------------------------------|
|----------------------------------|
|-4--4-4-4-4-4-4-4-4-4-4-4-4-4-4---|
|-4--4-4-4-4-4-4-4-4-4-4-4-4-4-4-2-|
|-2--2-2-2-2-2-2-2-2-2-2-2-2-2-2-2-|
|--------------------------------0-|

|----------------------|
|----------------------|
|----------------------|
|---------5-5-5-5-5x---|
|-5-5-5-5-5-5-5-5-5x---|
|-3-3-3-3-3-3-3-3-3x---|

|-------------------------------|
|-------------------------------|
|--4x-4x-4x-4x-4x-4x-4x-4x--4---|
|--4x-4x-4x-4x-4x-4x-4x-4x--4---|
|--2x-2x-2x-2x-2x-2x-2x-2x--2---|
|-------------------------------|  




esta completa
Calificar esta versión:
Aviso: Este fichero es trabajo propio de su transcriptor y representa su interpretación personal de la canción. El material contenido en esta página es para exclusivo uso privado, por lo que se prohibe su reproducción o retransmisión, así como su uso para fines comerciales.
Más versiones de Die Die My Darling, Metallica
Die Die My Darling
acordes
Die Die My Darling
tablatura
Die Die My Darling (ver 2)
tablatura
Descubre más canciones de Metallica