Die Die My Darling, Metallica (tablatura)

Autor: facuok | 31045 visualizaciones

METALLICA
DIE DIE MY DARLIN
1a
e-----------------------------------------|
B-----------------------------------------|
G-4-4-4-4-4-4-4-4-------------------------|
D-4-4-4-4-4-4-4-4-5--5--5-5-5-4--4--4-4-4-|
A-2-2-2-2-2-2-2-2-5--5--5-5-5-4--4--4-4-4-|
E-----------------3--3--3-3-3-2--2--2-2-2-|
"DIE DIE DIE MY DARLIN"
 IS SUNG UNDER THE B
1b
e-14-14-14-14-14-14-14-14-----------------|
B-14-14-14-14-14-14-14-14-----------------|
G-----------------------------------------|
D-----------------------------------------|
A-----------------------------------------|
E-----------------------------------------|
GUITAR TWO PLAYED THROUGHOUT
2a
e----0--------------------------0-------------------|
B----0--------------------------0-------------------|
G----0-------------4/6-6-6-6\4--0-------------------|
D-2----4-4-4-4-4-4----------------------------------|
A-2----2-2-2-2-2-2-2/4-4-4-4\2-----5-5-5-5-5-5-5-5--|
E-0----------------------------0---3-3-3-3-3-3-3-3--|


3a
e-----------------------------------------|
B-----------------------------------------|
G-4-4-4-4-4-4-4-4-------------------------|
D-4-4-4-4-4-4-4-4-5--5--5-5-5--7-7-6-6----|
A-2-2-2-2-2-2-2-2-5--5--5-5-5--7-7-6-6----|
E-----------------3--3--3-3-3--5-5-4-4----|
THIS IS PLAYED UNDER "DON'T CRY FOR ME OH BABY"
Calificar esta versión:
Aviso: Este fichero es trabajo propio de su transcriptor y representa su interpretación personal de la canción. El material contenido en esta página es para exclusivo uso privado, por lo que se prohibe su reproducción o retransmisión, así como su uso para fines comerciales.
Más versiones de Die Die My Darling, Metallica
Die Die My Darling
acordes
Die Die My Darling
tablatura
Die Die My Darling (ver 2)
tablatura
Descubre más canciones de Metallica