Ciudad De Los Gitanos, Marea (tablatura) (ver 2)

Autor: Anónimo | 35359 visualizaciones



He de decir que la transcripción anterior estaba muy bien,
pero por si alguien quiere afinar un poquito más, dejo mi aporte!


                  x4
e-------------------
b--------0-----0----
g------2---2-----2--
d----0-------0------
a-------------------
E-3-----------------


          G               F#/D             Am                 MIm7
---------------------------0---------------------------------------------
--------0-----0----------3---3---------------1-----0-----------3-----0---
------2---2-----2------2-------2-----------2---2-----2-------0---0-----0-
----0-------0--------0-----------0------2--------2--------2--------2-----
-------------------------------------0-----------------------------------
-3-----------------2-----------------------------------0-----------------

          Los caballos negros son,          las herraduras son negras...


>>>> Esto se repite 3 veces; la cuarta tiene una ligera modificación:


           G               F#/D             Am
e---------------------------0---------------------------------------------
b--------0-----0----------3---3---------------1-----0-----3-----1---------
g------2---2-----2------2-------2-----------2---2-----2-----2-----2-------
d----0-------0--------0-----------0------2--------2-----2-----2-----------
a-------------------------------------0-----------------------------------
E-3-----------------2-----------------------------------------------------

       Con el alma de charol,             vienen por la carretera


Estos son los arpegios que suenan todo el rato en las estrofas,
hasta que llega al estribillo.


 G                  F#/D
Los caballos negros son.
 Am                 Em7
Las herraduras son negras.
Sobre las capas relucen
manchas de tinta y de cera.
Tienen, por eso no lloran,
de plomo las calaveras.
Con el alma de charol
vienen por la carretera.


  Arrastra la posicion de C        D(G/E)           G                  Am
e--------------------------------------------------------------------------
b-------------1----------------3-----------------0---------------1---------
g----------2----2------------0---0-------------2---2-----------2---2-------
d-------0---------0---2----4-------4---4-----0-------0--0----2-------2---2-
a-0-2-3-------------3-----5-----------5---------------------0-----------0--
E------------------------------------------3-----------3-------------------

        Oh ciu---dad   de   los gi   ta nos   quien te vio y no te recuerda


 C      D          G
¡Oh ciudad de los gitanos!
           Am           C
¿Quién te vio y no te recuerda?
 D                G
Apaga tus verdes luces
      Am            C
que viene la benemérita.


>>>> Esto son 4 veces. Después del estribillo aparece esto:


        C           D(G/E)          G             D(G/E)
e--------------------------------------------------------------------------
b-------1--------------3-------------------------3-------5-------3-------5-
g-----2--------------0-------------0-----0-----0-------0-------0-------0---
d---0------2-2-----4-----4-4-----0-----0-----4-------4-------4-------4-----
a-3---------3----5--------5------------------------5-------5-------5-------
E------------------------------3-----2-----0-------------------------------

                               >>>> Y así hasta que aparece la eléctrica...


La ciudad, libre de miedo,
multiplicaba sus puertas.
Cuarenta guardias civiles
entran a saco por ellas.
…
Por las calles empinadas
suben las capas siniestras,
dejando detrás, fugaces,
remolinos de tijeras.
…
Rosa la de los Camborios,
gime sentada en su puerta
con sus dos pechos cortados
puestos en una bandeja.
Pero la Guardia Civil
avanza sembrando hogueras,
donde joven y desnuda
la imaginación se quema.
…
¡Oh ciudad de los gitanos!
La Guardia Civil se aleja
por un túnel de silencio
mientras las llamas te cercan.





Calificar esta versión:
Aviso: Este fichero es trabajo propio de su transcriptor y representa su interpretación personal de la canción. El material contenido en esta página es para exclusivo uso privado, por lo que se prohibe su reproducción o retransmisión, así como su uso para fines comerciales.
Más versiones de Ciudad De Los Gitanos, Marea
Ciudad De Los Gitanos
acordes
Ciudad De Los Gitanos
tablatura
Ciudad De Los Gitanos (ver 2)
tablatura
Descubre más canciones de Marea