Ciudad De Los Gitanos, Marea (tablatura)

Autor: Anónimo | 37413 visualizaciones



Ola compis...k tal? Bien, no? Weno, e empezao a tabular el disco 
por esta cancion xk...es la k estaba sonando en el winamp en este 
momento...xDD Es un discazo, suena mu bien, parece k ya van definiendo 
un estilo propio. Espero k la disfruteis, i si teneis dudas...ya sabeis 
k esto del internet es un avanze del caraho, añadís al msn i resolvemos 
todas las dudas, ok? pauhl@msn.com Salud!


Ciudad de los gitanos



                  x4       G               F#/D             Am                 MIm7
e-------------------|---------------------------0---------------------------------------------
b--------0-----0----|--------0-----0----------3---3---------------1-----0-----------3-----0---
g------2---2-----2--|------2---2-----2------2-------2-----------2---2-----2-------0---0-----0-
d----0-------0------|----0-------0--------0-----------0------2--------2--------2--------2-----
a-------------------|-------------------------------------0-----------------------------------
E-3-----------------|-3-----------------2-----------------------------------0-----------------
 
  
                            Los caballos negros son,               las herraduras son negras...

Estos son los arpegios k suenan tol rato en las estrofas, asta k llega al estribillo.


 G                 F#/D
Los caballos negros son.
 Am                 Em7 
Las herraduras son negras.
Sobre las capas relucen
manchas de tinta y de cera.
Tienen, por eso no lloran,
de plomo las calaveras.
Con el alma de charol
vienen por la carretera.


  Arrastra la posicion de C        D(G/E)            G                  Am
e------------------------------------------------------------------------------------------
b-------------1------------------3--------------------0-----------------1------------------
g----------2----2--------------0---0----------------2---2-------------2---2----------------
d-------0---------0----2-----4-------4---4--------0-------0--0------2-------2---2----------
a-0-2-3--------------3------5-----------5--------------------------0-----------0-----------
E---------------------------------------------3-------------3------------------------------

                  Oh ciu---dad   de   los gi   ta        quien te    vio i no te recuerda...


 C      D          G            
¡Oh ciudad de los gitanos!
           Am           C
¿Quién te vio y no te recuerda?
 D                G
Apaga tus verdes luces
      Am            C
que viene la benemérita.





La ciudad, libre de miedo,
multiplicaba sus puertas.
Cuarenta guardias civiles
entran a saco por ellas.
…
Por las calles empinadas
suben las capas siniestras,
dejando detrás, fugaces,
remolinos de tijeras.
…
Rosa la de los Camborios,
gime sentada en su puerta
con sus dos pechos cortados
puestos en una bandeja.
Pero la Guardia Civil
avanza sembrando hogueras,
donde joven y desnuda
la imaginación se quema.
…
¡Oh ciudad de los gitanos!
La Guardia Civil se aleja
por un túnel de silencio
mientras las llamas te cercan.





Calificar esta versión:
Aviso: Este fichero es trabajo propio de su transcriptor y representa su interpretación personal de la canción. El material contenido en esta página es para exclusivo uso privado, por lo que se prohibe su reproducción o retransmisión, así como su uso para fines comerciales.
Más versiones de Ciudad De Los Gitanos, Marea
Ciudad De Los Gitanos
acordes
Ciudad De Los Gitanos
tablatura
Ciudad De Los Gitanos (ver 2)
tablatura
Descubre más canciones de Marea