Dame Tu Amor, Mago De Oz (tablatura)

Autor: drako zl | 43084 visualizaciones

Bueno aquí les dejo otra de mis tablaturas  es de la cancion dame tu amor 
De los señores mago de oz del disco Belfast espero que les guste

INTRO:
e|--------------------------------------------------------------|
B|--------------------------------------------------------------|
G|-------------------------------------------8/11---------------|
D|7/11-7/11-12-14-11-7/11-12-14-11-7/11-12-14----15-14-15-14-12-| x2 
A|--------------------------------------------------------------|
E|--------------------------------------------------------------|

   Hace tiempo que perdí con el diablo la partida
G|--|            |--|             |7-|          |9-|
D|7-|            |4-|             |7-|          |9-|
A|7-|            |4-|             |5-|          |7-|
E|5-|            |2-|             |--|          |--|    
   Marco mis cartas y mi boca con carmín
|--|           |--|        |7-|         |9-|
|7-|           |4-|        |7-|         |9-|
|7-|           |4-|        |5-|         |7-|
|5-|           |2-|        |--|         |--| 
   Hace tiempo que vivir se me pone cuesta arriba
|--|              |--|            |7-|          |9-|
|7-|              |4-|            |7-|          |9-|
|7-|              |4-|            |5-|          |7-|
|5-|              |2-|            |--|          |--|
   Y necesito negociar mi rendición
|--|        |--|     |7-|         |9-|
|7-|        |4-|     |7-|         |9-|
|7-|        |4-|     |5-|         |7-|
|5-|        |2-|     |--|         |--|
Precoro:

   Deudas de amor
                 |11-9-11-11-9-11----7-|
                 |11-9-11-11-9-11----7-|
                 |9--7-9--9--7-9—0-3-5-|
                 |---------------------|
   Financié mi alma 
              |9-|
              |9-|
              |7-|
              |--|
   Deudas de amor
                 |11-9-11-11-9-11-|
                 |11-9-11-11-9-11-|
                 |9--7-9--9--7-9—-|
                 |----------------|
Embargue mis sueños todos mis sueños
   |-----7-|           |9-|
   |-----7-|           |9-|
   |-0-3-5-|           |7-|
   |-------|           |--|  
Coro:

Dame tu amor dame tu amor esta noche
|------------------------------------------|
|7-------------4---------------------------|
|7-------------4-----------------2---------|
|5-------------2-----------------0---------|
Y podré pagar
|--------------|
|--------------|
|2-------------|
|0-------------|
Dame tu amor dame tu amor esta noche
|------------------------------------------|
|777777777777-444444444444444444-----------|
|777777777777-444444444444444444-222222222-|
|555555555555-222222222222222222-000000000-|

Y podré pagar
|--------------|
|--------------|
|2-2-2-2-2-2-2-|
|0-0-0-0-0-0-0-|

|--------------------------------------------------------------|
|--------------------------------------------------------------|
|-------------------------------------------8/11---------------|
|7/11-7/11-12-14-11-7/11-12-14-11-7/11-12-14----15-14-15-14-12-| X2 
|--------------------------------------------------------------|
|--------------------------------------------------------------|

  Hubo un tiempo en que creí que el primer beso era un contrato
G|--|                 |--|               |7-|                |9-|
D|7-|                 |4-|               |7-|                |9-|
A|7-|                 |4-|               |5-|                |7-|
E|5-|                 |2-|               |--|                |--|    

  Que con cada abrazo yo firmaba una declaración 
|--|              |--|        |7-|            |9-|
|7-|              |4-|        |7-|            |9-|
|7-|              |4-|        |5-|            |7-|
|5-|              |2-|        |--|            |--| 
    
  Pero paso de refilón otro amor bajo tu ventana 
|--|            |--|           |7-|          |9-|
|7-|            |4-|           |7-|          |9-|
|7-|            |4-|           |5-|          |7-|
|5-|            |2-|           |--|          |--|
 
  Y echaste el cierre por traspaso de pasión 
|--|         |--|               |7-|       |9-|
|7-|         |4-|               |7-|       |9-|
|7-|         |4-|               |5-|       |7-|
|5-|         |2-|               |--|       |--|
PRECORO:
   Deudas de amor
                 |11-9-11-11-9-11----7-|
                 |11-9-11-11-9-11----7-|
                 |9--7-9--9--7-9—0-3-5-|
                 |---------------------|
   Financié mi alma 
              |9-|
              |9-|
              |7-|
              |--|
   Deudas de amor
                 |11-9-11-11-9-11-|
                 |11-9-11-11-9-11-|
                 |9--7-9--9--7-9—-|
                 |----------------|
Embargue mis sueños todos mis sueños
   |-----7-|           |9-|
   |-----7-|           |9-|
   |-0-3-5-|           |7-|
   |-------|           |--|  
Coro:

Dame tu amor dame tu amor esta noche
|------------------------------------------|
|7-------------4---------------------------|
|7-------------4-----------------2---------|
|5-------------2-----------------0---------|
Y podré pagar
|--------------|
|--------------|
|2-------------|
|0-------------|



Dame tu amor dame tu amor esta noche
|------------------------------------------|
|777777777777-444444444444444444-----------|
|777777777777-444444444444444444-222222222-|
|555555555555-222222222222222222-000000000-|

Y podré pagar
|--------------|
|--------------|
|2-2-2-2-2-2-2-|
|0-0-0-0-0-0-0-|

   |11-9-11-11-9-11-|
   |11-9-11-11-9-11-|
   |9--7-9--9--7-9—-| X2
   |----------------|

|--------------------------------------------------------------|
|--------------------------------------------------------------|
|-------------------------------------------8/11---------------|
|7/11-7/11-12-14-11-7/11-12-14-11-7/11-12-14----15-14-15-14-12-| X2 
|--------------------------------------------------------------|
|--------------------------------------------------------------|

SOLO:

|-----------------------------------------------------------------------------|
|-----------------------------------------------------------------------------|
|-----------------------------------------------------------------------------|
|5/7--7777777777777/9--9999999999999/11-11-11-11-11-11-11-12-11-12-11-12-11-9-|
|-----------------------------------------------------------------------------|
|-----------------------------------------------------------------------------|

|------------------------------------------------------------|
|------------------------------------------------------------|
|------------------------------------------------------------|
|--------------------------14----14----12/14-12-11-12-11-9-7-|
|10/12-121212121212121212-----11----9------------------------|
|------------------------------------------------------------|

Deudas de amor
                 |11-9-11-11-9-11----7-|
                 |11-9-11-11-9-11----7-|
                 |9--7-9--9--7-9—0-3-5-|
                 |---------------------|
   Financié mi alma 
              |9-|
              |9-|
              |7-|
              |--|
   Deudas de amor
                 |11-9-11-11-9-11-|
                 |11-9-11-11-9-11-|
                 |9--7-9--9--7-9—-|
                 |----------------|
Embargue mis sueños todos mis sueños
   |-----7-|           |9-|
   |-----7-|           |9-|
   |-0-3-5-|           |7-|
   |-------|           |--|  

CORO: SIN GUITARRAS SOLO BAJO

Dame tu amor dame tu amor esta noche
Y podré pagar
Dame tu amor dame tu amor esta noche
Y podré pagar




Dame tu amor dame tu amor esta noche
|------------------------------------------|
|777777777777-444444444444444444-----------|
|777777777777-444444444444444444-222222222-|
|555555555555-222222222222222222-000000000-|

Y podré pagar
|--------------|
|--------------|
|2-2-2-2-2-2-2-|
|0-0-0-0-0-0-0-|

Dame tu amor dame tu amor esta noche
|------------------------------------------|
|777777777777-444444444444444444-----------|
|777777777777-444444444444444444-222222222-|
|555555555555-222222222222222222-000000000-|

OH OH OH OH OH OH OH
|--------------|
|--------------|
|2-2-2-2-2-2-2-|
|0-0-0-0-0-0-0-|

Dame tu amor dame tu amor esta noche
|------------------------------------------|
|777777777777-444444444444444444-----------|
|777777777777-444444444444444444-222222222-|
|555555555555-222222222222222222-000000000-|
                                               X5
Y podré pagar
|--------------|
|--------------|
|2-2-2-2-2-2-2-|
|0-0-0-0-0-0-0-|

DAME TU AMOR DAME TU AMOR ESTA NOCHE


BUENO ESO ES TODO ESPERO QUE LES GUSTE CREO QUE ME QUEDO CHIDA ASI QUE DISFRUTENLA
Calificar esta versión:
Aviso: Este fichero es trabajo propio de su transcriptor y representa su interpretación personal de la canción. El material contenido en esta página es para exclusivo uso privado, por lo que se prohibe su reproducción o retransmisión, así como su uso para fines comerciales.
Más versiones de Dame Tu Amor, Mago De Oz
Dame Tu Amor
acordes
Dame Tu Amor
tablatura
Dame Tu Amor
bajo
Descubre más canciones de Mago De Oz