Dame Tu Amor, Mago De Oz (bajo)

Autor: Anónimo | 45734 visualizaciones

        Dame Tu Amor

Bueno, como ví que no había ninguna
tablatura de esta gran canción…
Ahí les va, es muy fácil de interpretar.

Intro
                           X2
G|-------------------------||
D|-------------------22222-||
A|-------------55555-------||
E|-55555-22222-------------||

Min 0.11
            X4
------------||
-------0--2-||
------------||
-5--2-------||

Min 0.33

--------------------------------------------|
-4-3-4--4-3-4-------2--4-3-4--4-3-4-------2-|
---------------2-3-5-----------------2-3-5--|
--------------------------------------------|

Min 0.44

------------------------------------|
------------------------------------|
------------------------------------|
-5555-2222-000000--5555-2222-000000-|

Min 0.55

                           X2
G|-------------------------||
D|-------------------22222-||
A|-------------55555-------||
E|-55555-22222-------------||

Min 1.06
            X4
------------||
-------0--2-||
------------||
-5--2-------||

Min 1.28

--------------------------------------------|
-4-3-4--4-3-4-------2--4-3-4--4-3-4-------2-|
---------------2-3-5-----------------2-3-5--|
--------------------------------------------|

------------------------------------|
------------------------------------|
------------------------------------|
-5555-2222-000000--5555-2222-000000-|

Min 1.50

-----------------------------------|
-4-3-4--4-3-4--4-3-4--4-3-4--------|
-----------------------------0-2-3-|
-----------------------------------|

Mion 1.56
            X4
------------||
----------2-||
-------5----||
-5--2-------||

Min 2.18

--------------------------------------------|
-4-3-4--4-3-4-------2--4-3-4--4-3-4-------2-|
---------------2-3-5-----------------2-3-5--|
--------------------------------------------|

Min 2.29

---------------------------------|
---------------------------------|
---------------------------------|
-5-5-2-2-0-0-0-0-5-5-2-2-0-0-0-0-|

                                                        X8
--------------------------------------------------------||
--------------------------------------------------------||
--------------------------------------------------------||
-55555555-2222222-0000000000-55555555-2222222-0000000000||

Eso es todo
 Dudas y comentarios
 estebanrueda_falso2007@yahoo.es
 mhesteban23@hotmail.com
Calificar esta versión:
Aviso: Este fichero es trabajo propio de su transcriptor y representa su interpretación personal de la canción. El material contenido en esta página es para exclusivo uso privado, por lo que se prohibe su reproducción o retransmisión, así como su uso para fines comerciales.
Más versiones de Dame Tu Amor, Mago De Oz
Dame Tu Amor
acordes
Dame Tu Amor
tablatura
Dame Tu Amor
bajo
Descubre más canciones de Mago De Oz