Astaroth, Mago De Oz (tablatura) (ver 3)

Autor: zpawn | 20754 visualizaciones

/ = Slide
. = Palm Mute



Intervalo I (Intro) x2
D|--7---------------8---------------|
A|--7-------7-7-7/8-8---------------|
E|--5-------5-5-5/6-6---------------|
            . .    

G|----------------------------------|
D|--7---------------5---------------|
A|--7-------7-7-5/5-5---------------|
E|--5-------5-5-3/3-3---------------|
            . .    

Intervalo II
D|--7-----------7------------8------|
A|--7-------7-7-7----5-5-5/8-6------|
E|--5-------5-5-5----5-5-5/6-6------|
            . .      . .

D|--7-----------7-----5-------------|
A|--7-------7-7-7--5--3-------------|
E|--5-------5-5-5--3----------------|
            . .

D|--7-----------7------------8------|
A|--7-------7-7-7----5-5-5/8-6------|
E|--5-------5-5-5----5-5-5/6-6------|
            . .      . .

G|----------------------------------|
D|--7-----------7-------------------|
A|--7-------7-7-7--5----------------|
E|--5-------5-5-5--3----------------|
            . .

Intervalo III (Estrofa)
D|----------------------------------|
A|--7-7-7-------7-7-7-------7-8-8---|
E|--5-5-5-------5-5-5-------5-6-6---|
    . . .       . . .       . . .
   
D|------------------5-------8-------|
A|--7-7-7-------7-7-5-------8-------|
E|--5-5-5-------5-5-3-------6-------|
    . . .       . .

G|----------------------------------|
D|----------------------------------|
A|--7-7-7-------7-7-7-------7-8-8---|
E|--5-5-5-------5-5-5-------5-6-6---|
     . . .       . . .       . . .

D|------------------5---------------|
A|--7-7-7-------7-7-3---------------|
E|--5-5-5-------5-5-----------------|
     . . .       . .

D|--7-7-7-5-7-----------------------|
A|--7-7-7-5-7-----------------------| x3 Solo este compas
E|--5-5-5-3-5-----------------------|
              
G|----------------------------------|
D|----------------------------------|
A|------5---4---5---7---5---4-------|
E|--5---------------------------6---|
     

-Intervalo II
-Intervalo III

Intervalo IV (Entrada al coro)

D|--7-----8---------|
A|--7-----8---------|
E|--5-----6---------|

Intervalo V (Coro) X2
G|---------------10------------7-----|
D|--7-----10-----10-----10-----7-----|
A|--7-----10-----8------10-----5-----|
E|--5-----8-------------8------------|

G|---------------------10------------|
D|--7-----8-----10-----10-----10-----|
A|--7-----8-----10-----8------10-----|
E|--5-----6-----8-------------8------|

Intervalo VI (Post-Coro) X2 
G|--7-----------------------|---------------------|
D|--7-----7-----8-----7-----|--8-----7-----5------|
A|--5-----7-----8-----7-----|--8-----7-----5------|
E|--------5-----6-----5-----|--6-----5-----3------|

Intervalo VII
G|------------------------------5---|
D|----------------------------6-----|
A|--8-----------------------8-------|
E|----------------------------------| \
                                         X2
G|--8----------10-8-6---------5-----| /
D|------------------------------8---|
A|----------------------------------|
E|----------------------------------|

G|----------------------------------|
D|--6---------------6-------6h8-6---|
A|----------------6-----------------|
E|----------------------------------| \
                                       |
G|----------------------------------|  |
D|--5---------3-(5p3)-------------6-|  |
A|------------------6----------6h8--|  |
E|--------------------------6h8-----|  |
                                         > X2
G|----------------------------------|  |
D|-6h8--------------8-10-8----10--8-|  |
A|----------------8-----------------|  |
E|----------------------------------|  |
                                       |
G|----------------------------------||------------------|
D|--6-----------1//-6---6-------5---||--6-------8-------|
A|----------------------------------||------------------|
E|----------------------------------||------------------|
                        ^ ^ ^ ^                   ^^^^
Intervalo VIII
D|--------------------------|--------------------------|
A|-10-10-10-10-10-10-10-10--|-10-10-10-10-10-10-10-10--| 
E|-8--8--8--8--8--8--8--8---|-8--8--8--8--8--8--8--8---|   
   .  .  .  .  .  .  .  .     .  .  .  .  .  .  .  .
                                      
D|-----------------|-----------------|
A|-8-8-8-8-8-8-8-8-|-6-6-6-6-8-8-8-8-|
E|-6-6-6-6-6-6-6-6-|-4-4-4-4-6-6-6-6-|
   . . . . . . . . . . . . . . . .      ______X2

D|-----------------|-----------------|
A|-6-6-6-6-6-6-6-6-|-6-6-6-6-6-6-6-6-|
E|-4-4-4-4-4-4-4-4-|-4-4-4-4-4-4-4-4-|
    . . . . . . . .  . . . . . . . . 

D|-8-8-8-8-8-8-8-8-|-8-8-8-8-8-8-8-8-|
A|-6-6-6-6-6-6-6-6-|-6-6-6-6-6-6-6-6-|
G|-----------------|-----------------|
   . . . . . . . .   . . . . . . . .

D|-----------------|-----------------|
A|-8-8-8-8-8-8-8-8-|-8-8-8-8-8-8-8-8-|
E|-6-6-6-6-6-6-6-6-|-6-6-6-6-6-6-6-6-|
   . . . . . . . .   . . . . . . . . 

D|-----------------|-8-8-8-8-8-8-8-8-|
A|-6-6-6-6-6-6-6-6-|-6-6-6-6-6-6-6-6-|
E|-4-4-4-4-4-4-4-4-|-----------------|
   . . . . . . . .   . . . . . . . . 

D|-------6------|-------6-------|
A|-------6------|-------6-------|
E|-4444444------|-4444444-------|
   ......         ......

D|-------8------|-------8-------|
A|-------8------|-------8-------|
E|-6666666------|-6666666-------|
   ......         ......

D|-------6------|-------6-------|--8-----10----4-----|
A|-------6------|-------6-------|--8-----10----4-----|
E|-4444444------|-4444444-------|--6-----8-----2-----|
   ......         ......


Intervalo II

Intervalo IX (1er Parte Solo)
D|-7-7-7-5-7--------|-7-7-7-5-7----7--------|
A|-7-7-7-5-7--------|-7-7-7-5-7----7--------|
E|-5-5-5-3-5--------|-5-5-5-3-5----5--------|

G|---------------------------------5--------|
D|-7-7-7-5-7--------|-7-7-7-5-7----5--------|
A|-7-7-7-5-7--------|-7-7-7-5-7----3--------|
E|-5-5-5-3-5--------|-5-5-5-3-5-------------|





Intervalo X (2do Parte Solo)
D|----------------------------8-----|
A|--7---7-7-7---7-7-7---7-7-7-8-----|
E|--5---5-5-5---5-5-5---5-5-5-6-----|
    .   . . .   . . .   . . .

D|----------------------------5-----|
A|--7---7-7-7---7-7-7---7-7-7-5-----|
E|--5---5-5-5---5-5-5---5-5-5-3-----|
    .   . . .   . . .   . . .     ____________X4

G|----------------------------------|
D|----------------------------------|
A|------5---4---5---7---5---4-------|
E|--5---------------------------6---|


-Intervalo IV (Entrada al coro)
-Intervalo V (Coro) X2
-Intervalo VI (Post-Coro) X2 

Intervalo XI (Epilogo)
D|--7-7-7-5-7-----------------------|
A|--7-7-7-5-7-----------------------|
E|--5-5-5-3-5-----------------------|

Comentarios del colaborador: En realidad tome como base la tab ASTAROTH (2), Me parecio buena pero no tanto, asi que trate de pulirla un poco, Claro solo es la guitarra ritmica pero esta buenisima. Si tienen buen oido notaran que la mayoria es correcto, Saludos

Calificar esta versión:
Aviso: Este fichero es trabajo propio de su transcriptor y representa su interpretación personal de la canción. El material contenido en esta página es para exclusivo uso privado, por lo que se prohibe su reproducción o retransmisión, así como su uso para fines comerciales.
Más versiones de Astaroth, Mago De Oz
Astaroth
acordes
Astaroth
tablatura
Astaroth (ver 2)
tablatura
Astaroth (ver 3)
tablatura
Astaroth
bajo
Astaroth
teclado
Descubre más canciones de Mago De Oz