Astaroth, Mago De Oz (bajo)

Autor: Anónimo | 46159 visualizaciones

________________________________________________________________________
Mägo de Oz - Astaroth   [ Fölkergeist ]
________________________________________________________________________


[0:24] Introducción

G||----------------------------------||
D|:----------------------------------||
A|:----------------------------------||
E||--5-------5---------------5h6-----||

G||----------------------------------||
D||----------------------------------||
A||----------------------------------||
E||--5-------5---3-----------5-------||

G||----------------------------------||
D||----------------------------------||
A||----------------------------------||
E||--5-------5---------------5h6-----||

G||----------------------------------||
D||----------------------------------:|
A||--------------3-------------------:|
E||--5-------5-----------------------||

[0:36] Versos

G||----------------------------------||
D|:----------------------------------||
A|:----------------------------------||
E||--5-5-5-------5-5-5-------5h6-6---||
    De la noche de los tiempos

G||----------------------------------||
D||----------------------------------||
A||----------------------------------||
E||--5-5-5-------5-5-3-------6-------||
    de tu oscuridad

G||----------------------------------||
D||----------------------------------||
A||----------------------------------||
E||--5-5-5-------5-5-5-------5h6-6---||
    He regresado a buscar

G||----------------------------------||
D||----------------------------------:|
A||------------------3---------------:|
E||--5-5-5-------5-5-----------------||
    un don para la humanidad

[0:49] Riff 1

G||----------------------------------||
D|:----------------------------------:|
A|:----------------------------------:|  x3
E||--5-5-5-3-5-----------------------||
               Y no pronuncias mi nombre...

G||----------------------------------||
D|:----------------------------------:|
A|:------5---4---5---7---5---4-------:|
E||--5---------------------------6---||
     El reflejo alimentad...

[1:02] se repite Riff de Introducción
[1:15] se repiten los versos
[1:28] se repite el Riff 1

[1:42] Entrada al coro

G||------------------||
D|:------------------:|
A|:------------------:|
E||--5-------8-------||

[1:44] Coro

G||----------------------------------||
D|:----------------------------------||
A|:--8-----(8h10-7)------------------||     [Lo que esta entre ()s es]
E||------------------8---------------||    [algo que el bajo hace   ]
                                         x4 [solo algunas veces,     ]
G||----------------------------------|| /   [tienes que escuchar para]
D||----------------------------------:|     [saber cuando            ]
A||--5-------------------------------:|
E||---------(8)------6-------8-------||

[2:12] Riff 2

G||----------------------------------||
D|:----------------------------------||
A|:--8---------------5---------------||
E||----------8---------------5-------||

G||----------------------------------||
D||----------------------------------||
A||------------------8---------------||
E||--6-------8---------------8-------||

G||----------------------------------||
D||----------------------------------||
A||--5-------------------------------||
E||----------5-------6-------5-------||

G||----------------------------------||
D||----------------------------------:|
A||----------------------------------:|
E||--6-------5-------3---------------||

[2:27] Solo de Bajo

G||------------------------------5---||
D|:----------------------------6-----||
A|:--8-----------------------8-------||
E||----------------------------------|| 
                                         x2
G||--8----------10-8-6---------5-----|| /
D||------------------------------8---:|
A||----------------------------------:|
E||----------------------------------||

G||----------------------------------||
D|:--6---------------6-------6h8-6---||
A|:----------------6-----------------||
E||----------------------------------|| 
                                         |
G||----------------------------------||  |     [Eso que esta entre ()]
D||--5---------3-(5p3)-------------6-||  |     [se toca solo durante ]
A||------------------6----------6h8--||  |     [la primera repetición]
E||--------------------------6h8-----||  |
                                          > x2
G||----------------------------------||  |
D||-6h8--------------8-10-8----10--8-||  |
A||----------------8-----------------||  |
E||----------------------------------||  |
                                         |
G||----------------------------------|||------------------||
D||--6-----------1//-6---6-------5---:||--6-------8-------:|
A||----------------------------------:||------------------:|
E||----------------------------------|||------------------||
                        ^ ^ ^ ^                   ^^^^
   [La primera vez se toca esto, y la segunda vez esto]

[3:19] Riff 3

G||----------------------------------||     [El ritmo no es exactamente]
D|:----------------------------------||     [igual aquí, a veces se    ]
A|:--8-8-8-8-8-8-8-8-8-8-8-8-8-8-8-8-||     [apura y a veces toca más  ]
E||----------------------------------||    [lento, ahí tu ponle algo  ]
                                         x2 [de improvisación          ]
G||----------------------------------|| /
D||----------------------------------:|
A||--6-6-6-6-6-6-6-6-4-4-4-4-6-6-6-6-:|
E||----------------------------------||

G||----------------------------------||
D|:----------------------------------||
A|:----------------------------------||
E||--4-4-4-4-4-4-4-4-4-4-4-4-4-4-4-4-|| 
                                         |
G||----------------------------------||  |
D||----------------------------------||  |
A||--6-6-6-6-6-6-6-6-6-6-6-6-6-6-6-6-||  |
E||----------------------------------||  |
                                          > x2
G||----------------------------------||  |
D||----------------------------------||  |
A||----------------------------------||  |
E||--6-6-6-6-6-6-6-6-6-6-6-6-6-6-6-6-||  |
                                         |
G||----------------------------------||  |
D||----------------------------------:|  | 
G||----------------------------------|| /
D||----------------------------------:|    
Calificar esta versión:
Aviso: Este fichero es trabajo propio de su transcriptor y representa su interpretación personal de la canción. El material contenido en esta página es para exclusivo uso privado, por lo que se prohibe su reproducción o retransmisión, así como su uso para fines comerciales.
Más versiones de Astaroth, Mago De Oz
Astaroth
acordes
Astaroth
tablatura
Astaroth (ver 2)
tablatura
Astaroth (ver 3)
tablatura
Astaroth
bajo
Astaroth
teclado
Descubre más canciones de Mago De Oz