La Joya Del Pacífico, Lucho Barrios (tablatura)

Autor: Anónimo | 16265 visualizaciones



transcripcion: Diego Tobar Dubost (17), Antofagasta, Chile (27/12/08)


les recomiendo tocar esta cancion con los dedos (como se explica
abajo) y no con pua, ya que le da mas fluidez la partes rapidas,
al menos en guitarra acustica.


|---t----| = tremolo (se toca la misma cuerda 3 veces
             con los dedos a, m, i [anular, medio e indice)

[6-6-6]    = la nota en que se debe hacer tremolo

   p.      = dedo pulgar

   i.      = dedo indice

   m.      = dedo medio

   A.      = dedo anular


INTRO
                       |--t--|
e|-------------------------------------------7-10-9|
B|-------0---1-1-1-5-3-[6-6-6]-5-3---------9-------|
G|---2-1---2-----------------------5-4---9---------|
D|-2-----------------------------------------------|
A|-------------------------------------------------|
E|-------------------------------------------------|

                  |---t----|
e|-12-10-10-13-12-[15-15-15]-13-12----12---------12|
B|---------------------------------15---------14---|
G|-----------------------------------------14------|
D|-------------------------------------------------|
A|-------------------------------------------------|
E|-------------------------------------------------|

         m  i  p  m  i  p  m  i  p  m  i  p  m
e|-15-14-17-15----17-15----17-15----17-15----17--|
B|-------------17-------17-------17-------17-----|
G|-----------------------------------------------|
D|-----------------------------------------------|
A|-----------------------------------------------|
E|-----------------------------------------------|

   m  i  m  i                        i  A  m  i
e|-15-17-15------10-12-13-15-13-12---17-16-15-14-|
B|----------18---12-13-15-17-15-13---------------|
G|-----------------------------------------------|
D|-----------------------------------------------|
A|-----------------------------------------------|
E|-----------------------------------------------|

   A  m  i  A  m i A  m  i  A  m  i  m  i  A  m
e|-13-12-11-10-9-8-13-12-10----------------------|
B|--------------------------13-12-10-------------|
G|-----------------------------------13-10-------|
D|-----------------------------------------14-12-|
A|-----------------------------------------------|
E|-----------------------------------------------|

   i  m  i
e|---------------------12----17------------------|
B|------------10-13-10-10-13---------------------|
G|----------------9--------9-17------------------|
D|-10---------10----10---------------------------|
A|----14-12--------------------------------------|
E|-----------------------------------------------|



            Am      E           Am
Eres un arcoiris de múltiples colores
                F            E  (riff)
tú, Valparaíso, puerto principal
      Dm
tus mujeres son blancas margaritas
                 E           Am  (riff)
todas ellas arrancadas de tu mar


     Am          E             Am
Al mirarte de Playa Ancha lindo puerto
                A7                     Dm
allí se ven las naves al salir y al entrar
                            Am
el marino te canta esta canción
             E                 Am  (riff)
yo sin ti no vivo, puerto de mi amor


CORO
                 A                     E
Del cerro Los Placeres yo me pasé al Barón
                                     A
me vine al Cordillera en busca de tu amor
                    A7                   D
te fuiste al Cerro Alegre y yo siempre detrás
             E                       A
porteña buenamoza no me hagas sufrir más

                  A                    E
La Plaza de la Victoria es un centro social
                                              A
oh, Avenida Pedro Montt, como tú no hay otra igual
                   A7                      D
más yo quisiera cantarte con todito el corazón
                  E                       A
Torpedera de mi ensueño, Valparaíso de mi amor


INTRO

                Am      E          Am
En mis primeros años yo quise descubrir
                   G                       C
la historia de tus cerros jugando al volantín
             Dm
como las mariposas que vuelan entre las rosas
                               E         Am  (riff)
yo recorrí tus cerros hasta el último confín
               Am  E         Am
Yo me alejé de ti, puerto querido
                 G                        C
y al retornar de nuevo, te vuelvo a contemplar
              Dm                     Am
la joya del Pacífico te llaman los marinos
                E                  Am  (riff)
y yo te llamo encanto como Viña del Mar


CORO
                 A                     E
Del cerro Los Placeres yo me pasé al Barón
                                     A
me vine al Cordillera en busca de tu amor
                    A7                   D
te fuiste al Cerro Alegre y yo siempre detrás
             E                       A
porteña buenamoza no me hagas sufrir más

                  A                    E
La Plaza de la Victoria es un centro social
                                              A
oh, Avenida Pedro Montt, como tú no hay otra igual
                   A7                      D
más yo quisiera cantarte con todito el corazón
                  E                       A
Torpedera de mi ensueño, Valparaíso de mi amor




Riff

e|-----------12----17-|
B|--10-13-10-10-13----|
G|------9--------9-17-|
D|--10----10----------|
A|--------------------|
E|--------------------|





Calificar esta versión:
Aviso: Este fichero es trabajo propio de su transcriptor y representa su interpretación personal de la canción. El material contenido en esta página es para exclusivo uso privado, por lo que se prohibe su reproducción o retransmisión, así como su uso para fines comerciales.
Más versiones de La Joya Del Pacífico, Lucho Barrios
La Joya Del Pacífico
acordes
La Joya Del Pacífico
tablatura
Descubre más canciones de Lucho Barrios