La Primera Vez, Los Tres (bajo) (ver 2)

Autor: Anónimo | 28988 visualizaciones

Esta es la versión del unplugged
 el ritmo es 4/4 y la estructura
 es corchea-silencio de corchea-corchea


Intro

G |----------|---------|---------|-------------|
D |-----2----|-3---3---|---------|-------------|
A |-0-3---3--|---3---3-|-5-0-5-0-|-7---7-5-3-2-|
E |----------|---------|---------|---7---------| x2


Verso:

G |----------|---------|---------|-------------|
D |-----2----|-3---3---|---------|-------------|
A |-0-3---3--|---3---3-|-5-0-5-0-|-7---7-5-3-2-|
E |----------|---------|---------|---7---------| x2

Coro

G |-----------|-----------|--------------|---------------|
D |-----------|-----------|--------------|---------------|
A |-333-333--3|-111-111-1-|------0h333-3-|------0h555-5--|
E |--------3--|--------1--|-111-------3--|-333-------5---|

Intermedio:

G |----------|---------|---------|-------------|
D |-----2----|-3---3---|---------|-------------|
A |-0-3---3--|---3---3-|-5-0-5-0-|-7---7-5-3-2-|
E |----------|---------|---------|---7---------|


G |----------|---------|---------|-------------|
D |--7-5-3-2-|-3-2-0---|---------|-------------|
A |----------|-------3-|-5-0-5-0-|-7---7-5-3-2-|
E |----------|---------|---------|---7---------|

Verso 2

Coro

Solo de guitarra : se toca el intro 4 veces

Coro

Solo de bajo
G |----12-14-14-|-12-12-10-10--|-9-9-10-10-|-9-9-7-7--|
D |-14----------|--------------|-----------|----------|
A |-------------|--------------|-----------|----------|
E |-------------|--------------|-----------|----------|




G |-5-6-7-55-6-7-|-5-7—9-9-|--7-7--5-5--|-4-4-----|
D |--------------|---------|------------|-----7-7-|
A |--------------|---------|------------|---------|
E |--------------|---------|------------|---------|



G |---------|---------|----------|----------|
D |-5-5-3-3-|-2-2-3-3-|-2-2-0-0--|----------|
A |---------|---------|----------|-345-5-0-0|
E |---------|---------|----------|----------|



G |---------|-----------|------------|
D |---------|-----------|------------|
A |-5-5-0-0-|-567-7-----|-7-5-3-2----|
E |---------|-------7-7-|------------|


Solo de bateria

Verso

Coro

Outro (igual que el intro)


Creo q esta correcta falta una q otra nota
Calificar esta versión:
Aviso: Este fichero es trabajo propio de su transcriptor y representa su interpretación personal de la canción. El material contenido en esta página es para exclusivo uso privado, por lo que se prohibe su reproducción o retransmisión, así como su uso para fines comerciales.
Más versiones de La Primera Vez, Los Tres
La Primera Vez
acordes
La Primera Vez (ver 2)
acordes
La Primera Vez
tablatura
La Primera Vez
bajo
La Primera Vez (ver 2)
bajo
Descubre más canciones de Los Tres