La Primera Vez, Los Tres (bajo)

Autor: Anónimo | 41389 visualizaciones

Cancion: La primera vez
Grupo: Los Tres
Albumes: Los Tres(1991), Unplugged(1996)
Tabbber: Sr.Pato
       
Intro:

G |----------------------5-----5-------------------
D |--------2--5p4-0-2-3-----3-----0-2-0-----0------
A |--0--3--------------------------------0-----0---
E |------------------------------------------------

G |------------------------------------------5-----
D |--0h1-2-2-2-0-2-0-----------2--5p4-0-2-3--------
A |------------------3-2-0--3----------------------
E |------------------------------------------------

G |---5--------------------------------------------
D |--3-53-0-2-0-----0----0h1-2-2-2-0-2-0-----------
A |--------------0-----0-----------------3-2------- 
E |------------------------------------------------
(puedes darle mas velocidad entre cada nota o darles 
 otro tiempo,como gustes...pero esta es la base)

Verso:

como el Intro excepto por la entrada al coro donde es:

(empezando de la 3a parte del intro/verso)
G |---5--------------------------------------------
D |--3-53-0-2-0-----0----0h1-2-2-2-0-222222-0------
A |--------------0-----0---------------------------
E |------------------------------------------------


Coro:

G |-------------3h5-------------1h3----------------
D |------2--5-5---------0--3-3-----------------1h3-
A |--3-3------------1-1-----------------0--3-3-----
E |---------------------------------1-1------------

G |----------------------------3h5-------------1h3-
D |---------0-0-3h5-----2--5-5---------0--3-3------
A |------2----------3-3------------1-1-------------
E |--3-3-------------------------------------------

G |------------------------------------------------
D |-------------1h3--------------------------------
A |------0--3-3------------------------------------
E |--1-1------------3~~--3-3-----------------------

Solo Guitarra:

aqui se repite intro/verso una vez,coro una vez 
y vuelve al intro/verso nuevamente(en ese orden) 
Aqui hay una variacion que es característica del
tema,que va en el intro/verso,como se ve abajo :

G |----------------------5---5---------------------
D |--------2--5p4-0-2-3-----3-53--0-2-0-----0------
A |--0--3--------------------------------0-----0---
E |------------------------------------------------

G |------------2/999999----------------------------
D |--0h1-2-2-2---------9-7--5--3--2-0h2-3--2--0----
A |----------------------------------------------3-
E |------------------------------------------------

G |------------------------------------------------
D |--2-0-----0----0h1-2-2-2-0-22-0-----------------
A |-------0-----0------------------3-2-0-----------
E |------------------------------------------------

   esta parte la puedes hacer al principio,al final
   o donde desees(obviamente dentro de intro/verso,
   en el track del cd 'Los Tres' lo hace antes de 
   empezar el ultimo verso y en el outro de la 
   cancion,escucha el tema)

Luego del Solo de Guitarra vuelve al verso,coro
para luego terminar en el Outro(igual a intro/verso)
En la versión 'Unplugged' hace la misma figura con
ciertas variaciones,de regalo les dejo el solo de 
bajo a continuacion :)

Solo de Bajo(Unplugged):

G |----12-14-14-12-12------------------------------
D |--15---------------15-15-141214-15-15-14-14-----
A |------------------------------------------------
E |------------------------------------------------

G |------------------------------------------------
D |--12-12-------12-------12----11-12-12-14-12-----
A |--------15-15----15-15----15----------------15--
E |------------------------------------------------

G |------------------------------------------------
D |--12--------------------------------------------
A |-----14-15-1414---------------------------------
E |---------------15-17--15--13--12-10-12-13--12---

G |------------------------------------------------
D |------------------------------------------------
A |---------7-5-----5-----5h6-7-7-7-7-7-7-7-7------
E |--10--8-------5-----5----------------------5----

Escuchen la version Unplugged y la normal,ahi pueden
salir de dudas(con los tiempos quizas),de todos modos
no necesariamente se puede tocar como lo transcribí yo,
uno puede inventar cosas nuevas,como notas entremedio,
otras figuras,etc,que esto solo les sirva de guía,
especialmente para este tipo de canciones.
(que latero yo,sorry :P)
En todo caso si tienen algun comentario,correccion o 
alguna peticion de cualquier cancion,tanto de los 
Tres,grupos chilenos o extranjeros(ingles y español)
escribanme al mail  arpegio_uno@hotmail.com
Ojo,es mi primer tab,lo mas logico es que falte algo.
Calificar esta versión:
Aviso: Este fichero es trabajo propio de su transcriptor y representa su interpretación personal de la canción. El material contenido en esta página es para exclusivo uso privado, por lo que se prohibe su reproducción o retransmisión, así como su uso para fines comerciales.
Más versiones de La Primera Vez, Los Tres
La Primera Vez
acordes
La Primera Vez (ver 2)
acordes
La Primera Vez
tablatura
La Primera Vez
bajo
La Primera Vez (ver 2)
bajo
Descubre más canciones de Los Tres