Jarabe Para La Tos, Los Tres (tablatura) (ver 2)

Autor: Anónimo | 44681 visualizaciones

Bueno este es mi primer tab y creo que esta muy bien.
La cancion es jarabe para la tos del gran grupo chileno los tres.
La puse porque a los tabs que habian le faltaban cosas
pero aqui esta todo bien.


INTRO:

Guitarra 1

e-------------------------------------
b-------------------------------------
g----6-4-----4------------------------  (x4)
d--4-----7-6----7-6--2-4--------------
a-------------------------------------
E-------------------------------------


Guitarra 2

Intro FA#  SIm (x4)


Primer Estribillo:

Guitarra 1

Jarabe para la tos ...

e--4--4----4-----------------------------
b--4--4----4-----------------------------
g--3--3----3--4h6-4----------------------  (x4)
d--4--4----4-----------------------------
a--4--4----4-----------------------------
E--2--2----2-----------------------------


Guitarra 2

FA#            SIm
Jarabe para la tos
FA#            SIm
Una cucharada alivia el dolor
FA#            SIm
Jarabe para la tos
FA#            SIm
Cada ocho una sopera  Tomese dos.


Coro:

Guitarra 1 y 2

FA#          MI
Jarabe amiga de la sangre
 LA             SOL
Siempre aguda y penetrante
FA#            MI
Mancha y se derrite en mi boca
 LA             SOL
No en mis manos Ni en mi ropa


Instrumental 1 :

Guitarra 1

e-------------------------------------
b-------------------------------------
g----6-4-----4------------------------  (x2)
d--4-----7-6----7-6--2-4--------------
a-------------------------------------
E-------------------------------------

Guitarra 2

FA# - SIm (2 veces)


Segundo Estribillo:

Guitarra 1

Jarabe para la tos ...

e--4--4----4-----------------------------
b--4--4----4-----------------------------
g--3--3----3--4h6-4----------------------  (x4)
d--4--4----4-----------------------------
a--4--4----4-----------------------------
E--2--2----2-----------------------------

Guitarra 2

FA#            SIm
Jarabe para la tos
FA#            SIm
Una cucharada alivia el dolor
FA#            SIm
Jarabe para la tos
FA#            SIm
Cada ocho una sopera  Tomese dos.

Coro:

Guitarra 1 y 2

FA#          MI
Jarabe amiga de la sangre
 LA             SOL
Siempre aguda y penetrante
FA#            MI
Mancha y se derrite en mi boca
 LA             SOL
No en mis manos Ni en mi ropa


Instrumental 2:

Guitarra 1:

e-------------------------------------
b-------------------------------------
g-6h7---6h7---6h7---9-6---------------  (x4)
d-------------------------------------
a-------------------------------------
E-------------------------------------

Guitarra 2:

FA#         RE#m
Jarabe con envase
 RE          DO#
Sin prescripción
FA#                RE#m
Excipientes en el cuerpo
 RE         DO#    DO#
La marea subió

Instrumental 3:

Solo LA 1º Guitarra:

e-------------------------------------
b-------------------------------------
g----6-4-----4------------------------  (x2)
d--4-----7-6----7-6--2-4--------------
a-------------------------------------
E-------------------------------------

Final:

Guitarra 1:

e-------------------------------------
b-------------------------------------
g----6-4-----4------------------------  (se mantiene hasta el final)
d--4-----7-6----7-6--2-4--------------
a-------------------------------------
E-------------------------------------

Guitarra 2:

   FA#          SIm
Jarabe para la tos (3 veces)
  FA#           SIm
En el servicio de salud
    FA#         SIm
Me enamoré de ti mi luz
   FA#          SIm
En el servicio de salud
   FA#          SIm
Me condené por ti mi cruz.


Notas:


FA#:  -4-            SIm:  -2-
      -4-                  -3-
      -3-                  -4-
      -4-                  -4-
      -4-                  -2-
      -2-                  -x-

LA:   -7-            SOL:  -3-
      -7-                  -3-
      -6-                  -4-
      -7-                  -5-
      -7-                  -5-
      -5-                  -3-

RE#m: -2-            RE:   -2-    -x-
      -4-                  -3-    -7-
      -3-                  -3-  o -5-
      -1-                  -x-    -7-
      -x-                  -x-    -5-
      -x-                  -x-    -x-

DO#:  -4-
      -6-
      -6-
      -6-
      -4-
      -X-

La canción en sí es facil, escuchen harto la cancion y practiquen.



Grande El Rock Chileno
Grande Los Tres
Calificar esta versión:
Aviso: Este fichero es trabajo propio de su transcriptor y representa su interpretación personal de la canción. El material contenido en esta página es para exclusivo uso privado, por lo que se prohibe su reproducción o retransmisión, así como su uso para fines comerciales.
Más versiones de Jarabe Para La Tos, Los Tres
Jarabe Para La Tos
acordes
Jarabe Para La Tos
tablatura
Jarabe Para La Tos (ver 2)
tablatura
Descubre más canciones de Los Tres