Jarabe Para La Tos, Los Tres (tablatura)

Autor: Anónimo | 25300 visualizaciones

olii...este es mi 1er tab ojala les guste


riff intro


e-------------------------------------
b----------9--------------------------
g----6---7---7---6--------------------  (x4)
d--4---4-------4----------------------
a-------------------------------------
E-------------------------------------


      F#                 D-E
     Jarabe para    la tos
 d-4-4-------------4/6--6-6-------
 a--------------------------------

     F#            D         E
   una cucharada alivia el dolor
d-4-4-------------4/6-6-6---------
a---------------------------------

      F#                 D-E
     Jarabe para    la tos
 d-4-4-------------4/6--6-6-------
 a--------------------------------

       F#            D       E
  CADA 8 UNA SOPERA TOMESE 2
d-4-4-------------4/6--6-6-------
a--------------------------------




FA#          MI
Jarabe amiga de la sangre
 L              SOL
Siempre aguda y penetrante
FA#            MI
Mancha y se derrite en mi boca
 LA             SOL
No en mis manos Ni en mi ropa


   F#-D-E (X2)
e-------------------------------------
b----------9--------------------------
g----6---7---7---6--------------------  (x2)
d--4---4-------4----------------------
a-------------------------------------
E-------------------------------------




      F#                 D-E
     Jarabe para    la tos
 d-4-4-------------4/6--6-6-------
 a--------------------------------

     F#            D         E
   una cucharada alivia el dolor
d-4-4-------------4/6-6-6---------
a---------------------------------

      F#                 D-E
     Jarabe para    la tos
 d-4-4-------------4/6--6-6-------
 a--------------------------------

       F#            D       E
  CADA 8 UNA SOPERA TOMESE 2
d-4-4-------------4/6--6-6-------
a--------------------------------



FA#          MI
Jarabe amiga de la sangre
 L              SOL
Siempre aguda y penetrante
FA#            MI
Mancha y se derrite en mi boca
 LA             SOL
No en mis manos Ni en mi ropa

FA#-RE#m-RE-DO#.

D-4------------6-6----  (X2)
A---------------------

      F#            D#m
    JARABE     CON ENVASE
D-4-----------6-6----
A--------------------

    D           C#
   SIN PRESCRIPCION

D-4-----------6-6----
A--------------------

 F#                D#m
EXCIPIENTES EN EL CUERPO
D-4-----------6-6----
A--------------------

     D         C#
   La marea subio
D-4-----------6-6----
A--------------------



F#-D-E (X2)

e-------------------------------------
b----------9--------------------------
g----6---7---7---6--------------------  (x2)
d--4---4-------4----------------------
a-------------------------------------
E-------------------------------------

DESPUES SE REPITE EL RIFF INTRO 25 VECES

  F#            D-E
Jarabe para la tos (3 veces)
F#           D   E
En el servicio de salud
    F#          D  E
Me enamoré de ti mi luz
   F#          D   E
En el servicio de salud
   F#            D   E
Me condené por ti mi cruz.

F#-D-E (X4)




Y ESO ES TODO OJALA LES GUSTE CUALKIER CORRECCION A MI MAIL…
SALUDOS A MIS AMIGOS/AS: NIKOLE,MATHI,XIK, A LOS DEL INSTRUMENTAL
Y AL 2DO A DEL SAN KARLOS… GRANDE LOS TRES
…RIKOOOOO ANGEL PARRA
Calificar esta versión:
Aviso: Este fichero es trabajo propio de su transcriptor y representa su interpretación personal de la canción. El material contenido en esta página es para exclusivo uso privado, por lo que se prohibe su reproducción o retransmisión, así como su uso para fines comerciales.
Más versiones de Jarabe Para La Tos, Los Tres
Jarabe Para La Tos
acordes
Jarabe Para La Tos
tablatura
Jarabe Para La Tos (ver 2)
tablatura
Descubre más canciones de Los Tres