He Barrido El Sol, Los Tres (tablatura)

Autor: pailoncito | 29139 visualizaciones

Aca les va la tablatura de esta gran banda chilena!
espero que les guste

intro:

e|----------------------------------------------------------------------|
B|--------------------------------~-------------------------------------|
G|-----------0------0------0-----0-------0-----0------------------------|
D|---------0----3-0------0---3-0-------0---3-0------------------x2------|
A|-----1/2------------1/2-----------1/2---------------------------------|
E|---3-------------------------------------------3-3--------------------|

e|--------0----3-0-----|--------------------|---------------------------|
B|---2/3----3-------3--|-------0---3-0------|---------------------------|
G|---------------------|--2/3----3-----3-2--|-----0---------------------|
D|---------------------|--------------------|-2/3---3-2-0-----2-0-------|
A|---------------------|--------------------|-------------2-0-----2-0---|
E|---------------------|--------------------|-------------------------3-|

e|--2---3------|
B|--1---3------|
G|--2---0------|
D|--0---0------|
A|--x---2------|
E|--x---3------|

esta es la segunda parte de la intro

e|--3--2--0----2--0--2--0--|------3----2---0---------2---0--2---------|
B|--0--0--0----1--1--1--1--|-----0-0----0---0-------1-1---1--1--------|
G|--0--0--0----2--2--2--2--|----0---0----0---0-----2---2---2--2-------|
D|-------------------------|---------------------0--------------------|
A|-------------------------|------------------------------------------|
E|-------------------------|--3---------------------------------------|

e|-------3-----------2------------3-----------7----------7--------7----|
B|----5---5-------4---4--------5---5-------9---9------8---8------7-7---|
G|--4--4---4----4--4---4-----5--5---5----7--7---7---7--7---7----7---7--|
D|------------------------------------------------------------10-------|
A|---------------------------------------------------------------------|
E|---------------------------------------------------------------------|

e|----3------|
B|----3------|
G|----4------|
D|----5------|
A|----5------|
E|----3------|



en esta parte suena el acordeon

     G     D7       G    D7
e|--3-3---5--5-----3-3---5-------------------------|
B|--3-3---7--7-----3-3---7-------------------------|
G|--4-4---5--5-----4-4---5-------------------------|
D|--5-5---7--7-----5-5---7-------------------------|
A|--5-5---5--5-----5-5---5-------------------------|
E|--3-3---x--x-----3-3---x-------------------------|

estrofa:

  G                         D7
  He barrido el sol de este lugar,

e|-3--3--------------------5--5--------|
B|-3--3--------------------7--7--------|
G|-4--4--------------------5--5--------|
D|-5--5--------------------7--7--------|
A|-5--5--------------------5--5--------|
E|-3--3--------------------x--x--7--5--|

  G                        D7
  arrastre el calor del basural,

e|-3--3---------------5--5--------|
B|-3--3---------------7--7--------|
G|-4--4---------------5--5--------|
D|-5--5---------------7--7--------|
A|-5--5---------------5--5--5--6--|
E|-3--3---------------x--x--------|



Em7   B      C    E7*  A7       D7      G
que brillaba sobre ti, no se si fue tan asi.

e|-7--7------8----7--|--5--------5-------3--------|
B|-8--7------8----0--|--8--------7-------3--------|
G|-7--8------9----7--|--6--------5-------4--------|
D|-9--9------10---6--|--5--------7-------5--------|
A|-7--9------10---7--|--7--------5-------5--------|
E|-x--7------8----x--|--5--------x-------3--------|


Con mi voz de plata hare temblar,
romper los cristales,llorar, esperar
y en tu cama brillara,
el sol que no volvera.

coro:

C         B          Em7
No es tan facil ser feliz,
C         B          D7
cuando opacazte el barniz,
F             Em7
que pintaste verde, azul y gris,
F             Em7
que quitaste a espaldas de mi,
F            Em7    D7
que pintaste verde.


En esta parte se vuelve a repetir la estrofa y el coro,
y luego sigue esto:

1er solo
e|-------------0--|-----------------------------------------------|
B|-------5-3----0-|---------12-10---10----------------------------|
G|---3-4-----4----|---10h11---------11---se-repite de una vez mas-|
D|----------------|-----------------12----------------------------|
A|----------------|-----------------------------------------------|
E|----------------|-----------------------------------------------|

e|------7----------8-7--------10-8---------------14----------14---10--|
B|--------8------------7-----------8------12-15--15---12-15--13---10--|
G|--7/9-----9----8----------9-----------13------------12-----14---11--|
D|--------------------------------------------------------------------|
A|--------------------------------------------------------------------|
E|--------------------------------------------------------------------|

e|-----------------------------------------------|
B|-----------------------------------------------|
G|--7--5--4--4--4--6--4--6--4--------------------|
D|--9--7--5--5--5--7--5--7--5--------------------|
A|-----------------------------------------------|
E|-----------------------------------------------|

bueno este no es el solo de la version unplugged,
pero es el de la version original

e|---------------------------0-----|-2-1-0------------------------|
B|------------------0--0--2/3--2-3-|-------3-1-0---------------12-|
G|-------0---0--0--3--3------------|-------------2-0-----------12-|
D|------0--4---4-------------------|-----------------4-2-0-----12-|
A|--1/2----------------------------|------------------------------|
E|-3-------------------------------|------------------------------|

esta parte se toca muy rapido

e|----------------------------------------------------------------|
B|-------------7----7-10------10-8----8-12-----12-----------------|
G|------------7----8--------11-------9-------12-------------------|
D|--------7-9----10-------13--------9------14---------------------|
A|---7h8h9--------------------------------------------------------|
E|-10-------------------------------------------------------------|


e|-----------------------------------------------------------------|
B|----12---12-13-12---12-------15--15------------------------------|
G|-15----15---------15---15/16---16--16----------------------------|
D|-----------------------------------------------------------------|
A|-----------------------------------------------------------------|
E|-----------------------------------------------------------------|


e|-------------14-12-------------------------------------------------|
B|-------12-15------15--12-13-14-12----------------------------------|
G|-12-13----------------------------14-13-12-------------------------|
D|-------------------------------------------------------------------|
A|-------------------------------------------------------------------|
E|-------------------------------------------------------------------|


e|-15--12-13-14-12-------------------|
B|-----------------15-12-------------|
G|-----------------------15-14-12----|
D|-----------------------------------|
A|-----------------------------------|
E|-----------------------------------|


e|-------------------------------------------------|
B|-------------------------------------------------|
G|------12h14h12------12---------------------------|
D|--14-----------14-12---14-12----12h1412----------|
A|-----------------------------14---------14-12-10-|
E|-------------------------------------------------|


depues sigue una estrofa mas y un coro y termina de esta manera:

e|---------------------------0--------------------------------|
B|---------------------------0--------------------------------|
G|---------------------------0--se repite cuatro veces--------|
D|---------------------------2--------------------------------|
A|-------3-3-3-------3-3-2---2--------------------------------|
E|-1-1-1-------1-1-1---------0--------------------------------|




Comentarios del colaborador: Gracias a mi amigo Pancho por colaborar con este tema

Calificar esta versión:
Aviso: Este fichero es trabajo propio de su transcriptor y representa su interpretación personal de la canción. El material contenido en esta página es para exclusivo uso privado, por lo que se prohibe su reproducción o retransmisión, así como su uso para fines comerciales.
Más versiones de He Barrido El Sol, Los Tres
He Barrido El Sol
acordes
He Barrido El Sol (ver 2)
acordes
He Barrido El Sol
tablatura
He Barrido El Sol
bajo
Descubre más canciones de Los Tres