He Barrido El Sol, Los Tres (bajo)

Autor: Anónimo | 31141 visualizaciones

(esta es la versión del bajo legal)

A Intro
1----------------------------------------- 
2-----------------------------------------
3--2-3-4-5-5-3---2-3-4-5-5-pausa-55-5-3---
4-3-------5---5-3-------5---------------5-

B He barrido el sol de este lugar
1------------------------------------
2------------------------------------
3--2-3-4-5-5-3-----------------------
4-3-------5---5-3#sigue abajo--------

  Arrastre el calor del basural
1------------------------------------
2-----------1------------------------
3-2-3-4-5-5--------------------------
4--------5---------------------------

  Que brillaba sobre ti
1--4----------------------------------
2-2-2-4---5--2------------------------
3----2-2-3-3--5-3-2-------------------
4-------------------------------------

  No se si fue tan asi
1------------------------------------
2------------------------------------
3--7--5-3-2----2-3-4-5---------------
4-5-5---------3----------------------

  Lo mismo se repite en la siguiente
  estrofa ( Con mi voz de plata ....)

C No es tan facil ser feliz
1--5---4-----------------------------
2------------------------------------
3-3-3-2-2--2--2----------------------
4---------0-00-0---------------------

  Cuando opacaste el barniz
1--5---4-----------------------------
2------------------------------------
3-3-3-2-2--2--2----------------------
4---------0-00-0---------------------


  Que pintaste verde azul y gris
1-------------------------------------
2-------------------------------------
3--3--3---2--2------------------------
4-1-11-1-0-00-0-----------------------

  Que quitaste a espaldas de mi
1-------------------------------------
2-------------------------------------
3--3--3---2--2------------------------
4-1-11-1-0-00-0-----------------------

  Que pintaste verde
1-------------------------------------
2-------------------------------------
3--3--3---2--2----55-55---------------
4-1-11-1-0-00-0-----------------------

Y SE REPITE DE NUEVO, DESPUÉS VIENE EL SOLO Y ES LA MISMA 
BASE. EL SOLO ORIGINAL SERÁ PUBLICADO DESPUÉS, MI CORREO ES 
PELUCA_ODLAUMOR@HOTMAIL.COM
Calificar esta versión:
Aviso: Este fichero es trabajo propio de su transcriptor y representa su interpretación personal de la canción. El material contenido en esta página es para exclusivo uso privado, por lo que se prohibe su reproducción o retransmisión, así como su uso para fines comerciales.
Más versiones de He Barrido El Sol, Los Tres
He Barrido El Sol
acordes
He Barrido El Sol (ver 2)
acordes
He Barrido El Sol
tablatura
He Barrido El Sol
bajo
Descubre más canciones de Los Tres