Déjate Caer, Los Tres (tablatura)

Autor: Anónimo | 21381 visualizaciones

Transcribido por Esteban Font (never_enought@uolemail.com)
  
  1ª guitarra semi-acustica (Angel Parra)

    Bm            Bm                               A            Em
 |--------2-------------2-0-------------2----------0---0---0--------0-------
 |------3-3-3---3-----3-----3-2-0-----3-3-3---3--0-0-3-2-0-0----0---0-------
 |--4-4-4-4-4-4-4-4-4-------------4-4-4-4-4-4-4--2-2-2-2-2-2--0-0---0---0---  
 |--4-4-4-4-4-4-4-4---------------4-4-4-4-4-4-4--2-2-2-2-2-2--2-2-2-2-2-2-2-
 |--2-------------2---------------2--------------0------------2-2-2-2-2-2-2-
 |------------------------------------------------------------0-------------

 1.-Déjate caer____               Déjate caer____          La Tierra es al rem
 2.-Mira al cielo ceder___    y a la tierra después___        Vuelve a cre__
 3.-Consuélame otra vez___ porque no pienso volver___      el suelo tiene  

  C#m7b5       Em           C            Bm              Bm
 -----0---0-0----------0----0---0---0-0--------2-0-------------2-0--------
 -------5---5------0-----0--1-----1---1------3-----3-2-0-----3-----3-2-0--
 ---4---4-4-4----0-0---0-0--0-0-0-0-0-0--4-4-------------4-4--------------
 -5-5-5-5-5-5--2-2-2-2-2-2--2-2-2-2-2-2--4---------------4----------------
 -4-4-4-4-4-4--2-2-2-2-2-2--3------------2---------------2----------------
 -2------------0----------------------------------------------------------

  véz___    La sangre es amarilla___  Déjate caer___
 er___      la sangre es amarilla___  déjate caer___
 sed___     la vida es imprecisa___   déjate caer___

    F#aug        Em              F#aug        Em              F#aug
 |-------------------------------------------------------------------------
 |------7-----7------------------------7-7------------------------7-----7--
 |--7-7-7-7-7-7--0-----------------7-7-7-7-7--0-----------------7-7-7-7-7--
 |--8-8-8-8-8-8--2---------2-4-5-4-8-8-8-8-8--2---------2-4-5-4-8-8-8-8-8--
 |--9-9-9-9-9-9--2-0-2-4-5---------9-9-9-9-9--2-0-2-4-5---------9-9-9-9-9--
 |---------------0----------------------------0----------------------------

 El Viento ya no sopla___      La Boca bien cerrada___         Amárrate los
las olas ya no mojan___        la ira de las rocas___          amárrame otra
las horas no demoran___      a mi alma desertora___           explícalo muy 

  Em           Dm                    C                 Bm
 --------------1-1-1-1-1-1-1-1-1-1---8--------8-----8--------2-0--------
 --------------3-3-3-3-3-3-3-3-3-3---8--8-----8-----8------3-----3-2-0--
 -0---0---0----2-2-2-2-2-2-2-2-2-2---9--9-----9--9--9--4-4--------------
 -2-2-2-2-2-2--0---0-0---0-0-----0--10-10-10-10-10-10--4----------------
 -2-2-2-2-2-2-----------------------10-10-10-10-10-10--2----------------
 -0-----0---0------------------------8-----8-----8--8-------------------
  pies___      Piensa en tu madre y déjate______ ca___er___
  vez___    un beso a mi madre   y  déjame______ca____er___
  bien___   se AbRE LA tierra____el suelo es_tá  a mis pies___

  

   Bm             
  -------2-0--------|
  -----3-----3-2-0--|
  -4-4--------------|
  -4----------------|
  -2----------------|
  ------------------|


 Brige:
    Cm                  Fm
 |--------------------------8-(x)-----10--(x)--11--  
 |--x--x--x--x--------------------6-------(x)------  
 |--x--x--x--x-------------------------------------   ( 3 bis ) 'se corta en Cm'
 |--5--5--5--5-------------------------------------   /
 |--3--6--5--6-------------------------------------  /
 |------------------------------------------------- /

 
 Solo de guitarra (Angel Parra)

    Bm                                                   A
|--/10-10-10-10-10-9-9-9-/12-12-------/10-10-10-10-10-12-9-9-9-9-10-9---
|-----------------------------------------------------------------------
|-----------------------------------------------------------------------
|-----------------------------------------------------------------------
|-----------------------------------------------------------------------
|-----------------------------------------------------------------------

 Em        F#m      Em                C                      Bm
|----7-6-7-/9-----6-7-9-9/10--9-7--|--8-10--10/12--10-8------7-7--5-5---
|----8-8-8--------8-8--------------|--8---------------------------------
|----------------------------------|------------------------------------
|----------------------------------|------------------------------------
|----------------------------------|------------------------------------
|----------------------------------|------------------------------------


 -------------------------------|
 -8-8--7-7--5-5-----------------| 
 ----------------7-7--6-6----4--|
 -------------------------------|
 -------------------------------|
 -------------------------------|


     Bm                                 A                 Em             F#m
     Déjate caer               Déjate caer             La tierra es al revés
    Em           C              Bm
 la sangre es amarilla      déjate caer.
        F#m          Em              F#m         Em          F#m         Em     
     El viento ya no sopla        La boca bien cerrada      Amárrate los pies
 Dm                   C        Bm
 Piensa en tu madre y déjate caer.

       (solo)
           
     Bm                                   A                Em          F#m
     Mira el cielo ceder y a la tierra después             vuelve a creer
    Em           C              Bm
 la sangre es amarilla      déjate caer.
         F#m        Em               F#m        Em           F#m          Em
     Las olas ya no mojan         La ira de las rocas       Amárrame otra vez
    Dm                C        Bm
 Un beso a mi madre y déjame caer.


Instrumental: Cm - Fm 
              Cm - Fm
              Cm - Fm
              Cm
 
     Bm                                   A                Em          F#m
     Mira el cielo ceder y a la tierra después             vuelve a creer
    Em           C              Bm
 la sangre es amarilla      déjate caer.
     Bm                                   A               Em          F#m
  consuélame otra vez porque no pienso volver          el suelo tiene sed
    Em           C              Bm       
 la vida es imprecisa       déjate caer.
         F#m        Em               F#m       Em          F#m         Em
     las horas no demoran       a mi alma desertora      explícalo muy bien
    Dm                C            Bm      
 se abre la tierra el cielo está a mis pies.


Instrumental: Cm - Fm
              Cm - Fm
              Cm - Fm
              Cm
Calificar esta versión:
Aviso: Este fichero es trabajo propio de su transcriptor y representa su interpretación personal de la canción. El material contenido en esta página es para exclusivo uso privado, por lo que se prohibe su reproducción o retransmisión, así como su uso para fines comerciales.
Más versiones de Déjate Caer, Los Tres
Dejate Caer
acordes
Déjate Caer
tablatura
Déjate Caer
bajo
Déjate Caer
teclado
Descubre más canciones de Los Tres