Déjate Caer, Los Tres (bajo)

Autor: Anónimo | 31016 visualizaciones

Espero les guste este bajeo. Esta muy sencillo.


Déjate caer.........
E-------------------2--5-55-----------------------------------------
A-2-22--2-22--2-22-----------------4--------------------3-33-1-2-22-
D---------------------------0-2-22----4--44--2--2-22-0--------------
G-------------------------------------------------------------------


El viento ya no sopla........(Esta parte se repite en los versos)
E---------------------------------------------------------------
A------------2-4-----------------2-4--------------------5-55—5—-
D-4-44--4--2-----2-4-5--4-44--2------2-4-5--4-44--2-22-1--------
G---------------------------------------------------------------


E---------------------
A—3-33—1- 2-22-2-22---
D---------------------
G---------------------


Puente
E-----------------------------
A---3-6-5-6--------5----------
D------------3-3-3---5-6-5-3--	 X 3
G-----------------------------


Para cerrar el puente  
E------------------------------
A--3-3-3-3-3-3333333-----------
D------------------------------
G------------------------------


Casi toda la cancion se repite. Solo es cuestion de poner
un poco de atencion y esfuerzo.
Calificar esta versión:
Aviso: Este fichero es trabajo propio de su transcriptor y representa su interpretación personal de la canción. El material contenido en esta página es para exclusivo uso privado, por lo que se prohibe su reproducción o retransmisión, así como su uso para fines comerciales.
Más versiones de Déjate Caer, Los Tres
Dejate Caer
acordes
Déjate Caer
tablatura
Déjate Caer
bajo
Déjate Caer
teclado
Descubre más canciones de Los Tres