Amor Violento, Los Tres (tablatura)

Autor: Anónimo | 35962 visualizaciones

LA - SIm - MI7 X 3  - LA

 LA         SIm  MI7 LA         SIm  MI7 LA    SIm  MI7 
-9-9-9-9--7-55555-7--9-9-9-9--7-55555-7-55--7-5-4-2-----------------------------
-10101010-9-77777-9--10101010-9-77777-9-75--------------------------------------
--------------------------------------------------------------------------------
--------------------------------------------------------------------------------
--------------------------------------------------------------------------------
--------------------------------------------------------------------------------

             LA           SIm MI7  
Cuando por primera vez te vi
              LA           SIm       MI7  
Supe que el cielo era para ti y para mi
LA            SIm  MI7  
Y para ti y para mi

LA - SIm - MI7

      LA           SIm MI7 
Nunca más podré dormir
      LA           SIm            MI7    LA      SIm MI7
Nunca más podré soñar con alguien que no seas tu

LA - SIm - MI7

     DO#m       FA#m        
Gastaré toda mi vida en comprar la tuya
     DO#m       FA#m   SI         LA
Gastaré toda mi vida y más...más
SIm        MI7
Mucho más mucho más

LA - SIm - MI7

El amor tendrá que esperar 
Un buen rato para descansar de tu y de mi
De tu y de mi

El amor tendrá que esperar
Un buen rato para descansar de tu y de mi
De tu y de mi

Gastaré toda mi vida en comprar la tuya
Gastaré toda mi vida y más, y más...

SOLO



-799--9--9--9--9---12-12--555-7-99999-14-1212-10-12-14-12-----------------------
------10-10-10-10--14-14--777-9-------------------------------------------------
--------------------------------------------------------------------------------
--------------------------------------------------------------------------------
--------------------------------------------------------------------------------
--------------------------------------------------------------------------------

-9--9--12-10-10-9--7-5-77-55--2020202-0422-00245442202-024544220202452----------
-10-10-14-12-12-10-9-7-99-77------------------------------------------320-------
--------------------------------------------------------------------------------
--------------------------------------------------------------------------------
--------------------------------------------------------------------------------
--------------------------------------------------------------------------------


--------------------------------------------------------------------------------
-5545454-7767676----------------------------------------------------------------
--------------------------------------------------------------------------------
--------------------------------------------------------------------------------
--------------------------------------------------------------------------------
--------------------------------------------------------------------------------

Gastaré toda mi vida
En comprar la tuya
Gastaré toda mi vida y más
Y más, y más...

Por que un amor violento
Nos deslumbró 
Un amor violento nos fulminó
Un amor pulento nos deslumbró
Un amor pulento nos fulminó


----------------½--------3------------------------------------------------------
-999777---------½--esto--2-----o-esto--8---------------------------------------
-------9997776--½--------2-------------6----------------------------------------
----------------½--------2-------------7----------------------------------------
----------------½---------------------------------------------------------------
----------------½---------------------------------------------------------------
Calificar esta versión:
Aviso: Este fichero es trabajo propio de su transcriptor y representa su interpretación personal de la canción. El material contenido en esta página es para exclusivo uso privado, por lo que se prohibe su reproducción o retransmisión, así como su uso para fines comerciales.
Más versiones de Amor Violento, Los Tres
Amor Violento
acordes
Amor Violento
tablatura
Amor Violento (ver 2)
tablatura
Amor Violento (ver 3)
tablatura
Amor Violento
bajo
Descubre más canciones de Los Tres