Amor Violento, Los Tres (bajo)

Autor: Anónimo | 39628 visualizaciones

Hola, esta es una buena forma de tocar el bajo en este tema
escuchen el tema y sabrán el tiempo de cada nota.

Introducción
A)
1---------------------------------------------------------
2---------------------------------------------------------
3------4-4------7-------4-4-------7------4-4-------7------
4----5-----5-7-7--7---5-----5-7--7--7---5----5-7--7--7--5-

A)
Cuando por primereeeera vez te vi.......
1--------------------------------
2--------------------------------
3-----------------4-4------7-----
4---------------5-----5-7-7--7---

Supe que el cielo era para ti y para mi 
1--------------------------------
2--------------------------------
3-----------------4-4------7-----
4---------------5-----5-7-7--7---

          y para ti y para mi oh
1--------------------------------
2--------------------------------
3-----------------4-4------7-----
4---------------5-----5-7-7--7---

A) 
Nunca mas podre dormir
nunca mas podre soñar 
con nadie que no seas tu...oh..oh

B)
Gastaré toda mi vida
1--------------------
2---------2----------
3-----4-----4--------
4-------------2-5-2--

En comprar la tuya
1--------------------
2---------2----------
3-----4-----4--------
4-------------2-5-2--

Gastaré toda mi vida 
1--------------------
2---------2----------
3-----4-----4--------
4-------------2-5-2--

y mááááááááás
1--------------------
2--------------------
3--2-2-2-2-2-2-2-----
4--------------------

A)
El amor tendra que esperar
un buen rato para descansar 
de tu y de mi, de tu y de mi

El amor tendra que esperar
un buen rato para descansar 
de tu y de mi, de tu y de mi

B)
Gastaré toda mi vida
1--------------------
2---------2----------
3-----4-----4--------
4-------------2-5-2--

En comprar la tuya
1--------------------
2---------2----------
3-----4-----4--------
4-------------2-5-2--

Gastaré toda mi vida 
1--------------------
2---------2----------
3-----4-----4--------
4-------------2-5-2--

y mááááááááás
1---------------------------
2---------------------------
3--2-2-2-0-0-0-------------- x 3
4--------------4-4-4-2------

1----------------
2----------------
3----------------
4--0-0-0-0-0-0-0-

A) 
Porque un amor violento
nos deslumbro
un amor violento nos fulmino
Porque un amor violento
nos deslumbro
un amor violento nos fulmino
        
A)
sigue así hasta el fin

NOTA: En el puntero el bajo sigue igual que en A
      Antes del punteo es el coro en B.

Termina en LA.
Calificar esta versión:
Aviso: Este fichero es trabajo propio de su transcriptor y representa su interpretación personal de la canción. El material contenido en esta página es para exclusivo uso privado, por lo que se prohibe su reproducción o retransmisión, así como su uso para fines comerciales.
Más versiones de Amor Violento, Los Tres
Amor Violento
acordes
Amor Violento
tablatura
Amor Violento (ver 2)
tablatura
Amor Violento (ver 3)
tablatura
Amor Violento
bajo
Descubre más canciones de Los Tres