Camino Del Desierto, Los Temerarios (tablatura) (ver 2)

Autor: Anónimo | 28282 visualizaciones



CAMINOS DEL DESIERTO

E---------------|-------------------------|-------------------|-----------
B---------------|-10-9----10-9----10-9----|-------------------|-10-9------
G-------------5-|------10------10------10-|-------------5-5/6-|------10-9-
D-----3-3-6-6---|-------------------------|-----3-3-6-6-------|-----------
A-3-3-----------|-------------------------|-3-3---------------|-----------
e---------------|-------------------------|-------------------|-----------


E--------|-10-8----10----------------------|-9-7---9-------------------|--
B--------|------10----10-8----10-----------|-----9---9-7---9-----------|--
G-7------|-----------------10----11-9------|-------------9---10-8------|--
D---10-9-|----------------------------11-9-|----------------------10-8-|--
A--------|---------------------------------|---------------------------|--
e--------|---------------------------------|---------------------------|--

E-------------------|----------------------------------|-7------|---------
B-9-7---9/--10-8----|-10-9-----------------------------|-8------|---------
G-----9----------10-|------10-9-7----------------------|-9------|---------
D-------------------|-------------10-9-7---------------|-9------|---7----7
A-------------------|--------------------10-9-7--------|-7------|-7----7--
e-------------------|---------------------------10-9-7-|-7------|---------

E---------|-----------------|----------------|----------------|-----------
B---------|-----------------|----------------|----------------|-----------
G---------|-----------------|----------------|----------------|-----------
D-9-10/12-|---5----5-7-9/10-|---3----3-5-7/9-|-9-7--5-3-------|---7----7--
A---------|-5----5----------|-3----3---------|----------3-5---|-7----7----
e---------|-----------------|----------------|--------------3-|-----------

E---------|-----------------|----------------|------------------3-|
B---------|-----------------|----------------|------------------4-|
G---------|-----------------|----------------|------------------5-|
D-9-10/12-|---5----5-7-9/10-|---3----3-5-7/9-|-9-7--5-3---------5-|
A---------|-5----5----------|-3----3---------|----------3-5-----3-|
e---------|-----------------|----------------|--------------3---3-|

E---------------|-------------------------|---------------------------|...
B---------------|-10-9----10-9----10-9----|---------------------------|...
G-------------5-|------10------10------10-|-------------5-5/6-6-8-8/9-|...
D-----3-3-6-6---|-------------------------|-----3-3-6-6---------------|...
A-3-3-----------|-------------------------|-3-3-----------------------|... 
e---------------|-------------------------|---------------------------|...

-----------------|-----------------|----------------|----------------|
-----------------|-----------------|----------------|----------------|
-----------------|-----------------|----------------|----------------|
--7----7-9-10/12-|---5----5-7-9/10-|---3----3-5-7/9-|-9-7--5-3-------|
7----7-----------|-5----5----------|-3----3---------|----------3-5---|
-----------------|-----------------|----------------|--------------3-|
aquí salta esta parte al final que solo se repite solo una vez en la 
segunda repetición. Y después viene el siguiente solo con distor liguero.

E-19-19-19--17-17-17--15-15-15--13-13-12-|-12-14-15-14-12/-|--------------
B----------------------------------------|-----------------|-12-14-15-14--
G----------------------------------------|-----------------|--------------
D----------------------------------------|-----------------|--------------
A----------------------------------------|-----------------|--------------
e----------------------------------------|-----------------|--------------

E----|-12-14-15-14-12/-|----------------------|----------------|
B-12-|-----------------|----------------------|----------------|
G----|-----------------|-12-14-15-14-12-------|----------------|
D----|-----------------|----------------15-12-|-12/13—12/13----|
A----|-----------------|----------------------|----------------|
e----|-----------------|----------------------|-------------12-|


ESTA ESTODA LA CANCION Y ESPERO QUE LES GUSTE LES ASEGURO QUE ESTA BIEN
PARA AQUELLOS QUE LES GUSTA ESTA CANCION DUDAS A:
[email protected]





Calificar esta versión:
Aviso: Este fichero es trabajo propio de su transcriptor y representa su interpretación personal de la canción. El material contenido en esta página es para exclusivo uso privado, por lo que se prohibe su reproducción o retransmisión, así como su uso para fines comerciales.
Más versiones de Camino Del Desierto, Los Temerarios
Camino Del Desierto
tablatura
Camino Del Desierto (ver 2)
tablatura
Descubre más canciones de Los Temerarios