Camino Del Desierto, Los Temerarios (tablatura)

Autor: Anónimo | 30670 visualizaciones



Armoniza en LA menor

                       Am                E
e--------------------------8-7-5-8-7-5-7-4-
B---------------1-1-1--5-------------------
G-------2-2-2------------------------------
D--2-2-------------------------------------
A------------------------------------------
E------------------------------------------

   E                                          Am
e-----------------------------7-4---------------
B-------------0-0-0-3-3-3-5-5------6-5----------
G-------1-1-1--------------------------7-5-4----
D--2-2----------------------------------------7-
A-----------------------------------------------
E-----------------------------------------------

          Am                 Dm        G
e-12-10-8-12--8-7---8-----------10-8-7-10--7-----7--
B----------------10----10-------------------10-8----
G------------------------10-9-7---------------------
D---------------------------------------------------
A---------------------------------------------------
E---------------------------------------------------

       C        F       Am   E                      Am
e-8----------------7-----7-7---------------------------
B--8-----10-8--10---10-8-----9-------------------------
G---10-9-----10---------------10-9-7-------------------
D-----------------------------------10-9-7-6-----------
A-------------------------------------------8-7-5------
E------------------------------------------------8-7-5-

  Am          Dm  G        C  F        Am    E       Am
e------------------------------------------------------
B------------------------------------------------------
G-------------7----------4-5---------------------------
D---7--7-9-10------5--5-7------3--3-3-5-7--7-6---------
A-7--7-----------5--5---------3--3-------------8-7-5---
E---------------------------------------------------8-5

  Am                                              Dm  
e-20-20-20-19-19-19-17-17-17---------------------------
B----------------------------20-20-20-18-18-18-17------
G-------------------------------------------------19---
D------------------------------------------------------
A------------------------------------------------------
E------------------------------------------------------

  Dm             E              Am                  E
e------------------------------------------------------
B----17-18-20-18-17--17----------------17-18-20-18-17--
G-19-------------------19-17-16-----19-----------------
D-------------------------------19---------------------
A------------------------------------------------------
E------------------------------------------------------

   E                            Am
e--------------4-5-----------------
B----------5-7------3/5--3/5--1----
G----4-5-7----------------------2--
D--6-------------------------------
A----------------------------------
E----------------------------------





Calificar esta versión:
Aviso: Este fichero es trabajo propio de su transcriptor y representa su interpretación personal de la canción. El material contenido en esta página es para exclusivo uso privado, por lo que se prohibe su reproducción o retransmisión, así como su uso para fines comerciales.
Más versiones de Camino Del Desierto, Los Temerarios
Camino Del Desierto
tablatura
Camino Del Desierto (ver 2)
tablatura
Descubre más canciones de Los Temerarios