Ojos De Gata, Los Secretos (tablatura) (ver 3)

Autor: Anónimo | 28442 visualizaciones

INTRO (en realidad se toca con dos guitarras, una arpegiando los acordes y otra
punteando. Esta versión es para poder realizarlo todo con una sola guitarra)

  RE
e---------2---------------3-----------------------------------------------------
B-----3-------3-------3-------3-----7-7-7-7---5-7-7-8-7---5-7-7---8h7-5-3-2s5-2-
G---2---2---2---2---2---2---2---2s7-7-------7---7-------7---7---7---------------
D-0---------------0-------------------------------------------------------------
A-------------------------------------------------------------------------------
E-------------------------------------------------------------------------------
  LA                                                  RE
e---------0-----------------------------------5-3-2-----------2---------------
B-----2-----2s3-5-5---5---3-5-5-7-5---3-5-5---------5-3---3-------3-----------
G---2---2-------6---6---6---6-------6---6---6---------2-----2---2---2---------
D-------------------------------------------------------0-------------0-------
A-0---------------------------------------------------------------------------
E-----------------------------------------------------------------------------

(Seguir arpegiando los acordes durante toda la canción como al principio
 y al final de la INTRO)

RE
Fue en un pueblo con mar
                            LA
Una noche después de un concierto

Tu reinabas detrás

De la barra del único bar
            RE
Que vimos abierto
                       RE7
Cántame una canción al oído
              SOL  LA
Te sirvo y no pagas
     SOL               LA
Solo canto si tu me demuestras
                SOL        LA      RE
Que es verde la luz de tus ojos de gata. e---3-----------3---------
                                         B-----2-------2---2-----2-
                                         G-------3---3-------3-----
                                         D-0-------0-----------0---
                                         A-------------------------
                                         E-------------------------
RE
Loco por que me diera 
                    LA
la llave de su dormitorio

Esa noche cante

Al piano del amanecer
             RE
Todo mi repertorio
                        RE7
Con el quiero beber el alcohol 
                   SOL   LA
Me acuno entre sus mantas
    SOL                LA
Y soñé con sus ojos de gata
            SOL
Pero no recordé
       LA          RE
que de mi algo esperaban. e---3-----------3---------
                          B-----2-------2---2-----2-
                          G-------3---3-------3-----
                          D-0-------0-----------0---
                          A-------------------------
                          E-------------------------
Solo:
                                  RE
e-------------------------------------2-2s5-2-------2-2s5-2------------------
B-----------------------------------3---------3---3---------3---5-3-2h5-2----
G---------------------------------2-------------2-------------2--------------
D-----0h2-2s4-4-4-4-0-2 2s4-5-2-4--------------------------------------------
A---0------------------------------------------------------------------------
E----------------------------------------------------------------------------

   LA
e----------0-----/------------2s5-2-----5-/-3-2-10-9-7-12-9-9s10-9s12-12-10--
B--------2---3-2-/-----2-3-5-------5-3----/----------------------------------
G------2---------/-2-4--------------------/----------------------------------
D----2-----------/------------------------/----------------------------------
A--0-------------/------------------------/----------------------------------
E----------------/------------------------/----------------------------------


RE
Desperté con resaca y busque
                  LA
Pero allí ya no estabas

Me dijeron que se mosqueó

Porque me emborrache
                  RE
Y la use como almohada
                      RE7
Comento por ahí que yo era
              SOL   LA
Un chaval ordinario
      SOL
Pero como explicar
       LA
Que me vuelvo vulgar
     SOL       LA      RE
Al bajarme de cada escenario. e---3-----------3---------
                              B-----2-------2---2-----2-
                              G-------3---3-------3-----
                              D-0-------0-----------0---
                              A-------------------------
                              E-------------------------
      SOL
Pero como explicar
       LA
Que me vuelvo vulgar
     SOL       LA      RE
Al bajarme de cada escenario. e---3-----------3---------
                              B-----2-------2---2-----2-
                              G-------3---3-------3-----
                              D-0-------0-----------0---
                              A-------------------------
                              E-------------------------

Solo:
  
e--------------------------------------------------
B------7-7-7-7---5-7-7-8-7---5-7-7---8h7-5-3-2s5-2-
G--2s7-7-------7---7-------7---7---7---------------
D--------------------------------------------------
A--------------------------------------------------
E--------------------------------------------------
  LA                                          SOL    LA     RE
e---------0------------------------------------3------0-------
B-----2-----2s3-5-5---5---3-5-5-7-5-5-7-------0------2-----3--
G---2---2-------6---6---6---6----------------0------2-----2---
D-------------------------------------------0------2-----0----
A-0----------------------------------------2------0-----0-----
E-----------------------------------------3------0------------
Calificar esta versión:
Aviso: Este fichero es trabajo propio de su transcriptor y representa su interpretación personal de la canción. El material contenido en esta página es para exclusivo uso privado, por lo que se prohibe su reproducción o retransmisión, así como su uso para fines comerciales.
Más versiones de Ojos De Gata, Los Secretos
Ojos De Gata
acordes
Ojos De Gata
tablatura
Ojos De Gata (ver 2)
tablatura
Ojos De Gata (ver 3)
tablatura
Descubre más canciones de Los Secretos