Ojos De Gata, Los Secretos (tablatura)

Autor: Anónimo | 16923 visualizaciones

Os transcribo aquí la letra con los acordes y el tab de la guitarra
solista (Intro, solos y fills)
En concreto para el solo es mejor que lo toquéis con una guitarra
que tenga cutaway, porque llega muy alto.Está en Mi mayor, tal y
como se oye en la grabación original

Intro

E ----4--4----4---0---2--2/4--4--5-4h5p4--0--2--2/4--4---5-4-2-0----|
B ----------------------------------------------------------------/4-|
G -/4----4--4-----1---2--2/4--------------1--2--2/4------6-4-2-1----|
D ----------------------------------------------------------------/4-|
A -------------------------------------------------------------------|
E -------------------------------------------------------------------|

E --------------------------------------------75--4--2/4--0---|
B ---7--7--7-7--4--5/7--7-9p7--4--5/7--7----------------------|
G ------------------------------------------8--6--4--2/4--1---|
D ---7--7--7-7--4--6/7---------4--6/7-------------------------|
A -------------------------------------------------------------|
E -------------------------------------------------------------|

MI
Fue en un pueblo con mar
                            SI
Una noche después de un concierto

Tu reinabas detrás

De la barra del único bar
            MI
Que vimos abierto
                       MI7
Cántame una canción al oído
              LA      SI
Te sirvo y no pagas
     LA               SI
Solo canto si tú me demuestras
                LA        SI      MI
Que es verde la luz de tus ojos de gata.

                 E---4-2p0------------------0-0--2--2/4---
                 B---------4p2p0---0-------0--------------
      Fill 1     G---------------4---4--2-1---1--2--2/4---
                 D----------------------------------------
                 A----------------------------------------
                 E----------------------------------------
MI
Loco por que me diera
                    SI
la llave de su dormitorio

Esa noche cante

Al piano del amanecer
             MI
Todo mi repertorio

                 E---4--4--4--2--5--2-/-4--0---------------
                 B--------------------------0--------------
      Fill 2     G---4--4--4--2--6--2-/-4----2p1-----------
                 D-----------------------------------------
                 A-----------------------------------------
                 E-----------------------------------------

                        MI7
Con el quiero beber el alcohol
                   LA   SI
Me acuno entre sus mantas
    LA                SI
Y soñé con sus ojos de gata
            LA
Pero no recordé

       SI          MI
que de mi algo esperaba.

E -7-7-7-7--4-5-7-//-14--11--12--12-14--16-----17-16-14-12-12-|
B -9-9-9-9--5-7-9------------12------------17-----------------|
G -------------------------------------/16-----18-16-14-13-13-|
D ------------------------------------------------------------|
A ------------------------------------------------------------|
E ------------------------------------------------------------|

E -11---9--7-----------------------------------------7--------|
B --------------------------------------7-9-10p9p7------------|
G -11---9--8----6-8-9-9/11--9-8---6-8-9------------9----------|
D ------------9-----------------------------------------------|
A ------------------------------------------------------------|
E ------------------------------------------------------------|

E ------------//14-10-12-10-14-12---------5-4p2-0---0---------|
B -9-9h10-9-7-------------------------------------4-----------|
G --------------------13-------13-----------------------------|
D ------------------------------------------------------------|
A ------------------------------------------------------------|
E ------------------------------------------------------------|


 MI
 Desperté con resaca y busqué

                   SI
 pero allí ya no estaba


 me dijeron que se mosqueó

                                        MI
 porque me emborrache y la usé como almohada



 comentó por ahí que

     MI7             LA      SI
 yo era un chaval ordinario

       LA                    SI
 pero como explicar que me vuelvo vulgar

      LA       SI        MI
 al bajarme de cada escenario

                 E---12-11-10-------------
                 B---12-12-12-------------
      Fill 3     G------------------------
                 D------------------------
                 A------------------------
                 E------------------------



        LA                   SI
 pero como explicar que me vuelvo vulgar

      LA       SI         MI
 al bajarme de cada escenario



Al final toca de nuevo el Fill 3 y la intro (sólo cambia un
par de notas al final)

Es mi primer tab, espero que os guste.
Calificar esta versión:
Aviso: Este fichero es trabajo propio de su transcriptor y representa su interpretación personal de la canción. El material contenido en esta página es para exclusivo uso privado, por lo que se prohibe su reproducción o retransmisión, así como su uso para fines comerciales.
Más versiones de Ojos De Gata, Los Secretos
Ojos De Gata
acordes
Ojos De Gata
tablatura
Ojos De Gata (ver 2)
tablatura
Ojos De Gata (ver 3)
tablatura
Descubre más canciones de Los Secretos