Carol, Los Ratones Paranoicos (tablatura)

Autor: Anónimo | 42479 visualizaciones



Este fill va al final de la canción:

2:22

E ---------------3-1-3--3-------5------------------
B ----3-5~~----3------5-------5---7/9~~~---9-7-9~~-
G --5--------5--------------7------------7---------
D -------------------------------------------------

2:30

E -------------------------5--------------------
B ----3v/5~~--------------5--h7/9v---7-11-7-10--
G --5---------9-7-7/9/7-------------------------
D ----------------------------------------------


... estoy cubierto en la sala...

2:43

E ----------------------------------------------------------------------
B ----------------------------------------------------------------------
G -16/17v~~~-19^-17-18~~~-18p16-15-16-13/15----16-18^-16-17~~~-17p15-14-
D ----------------------------------------------------------------------



~ = sostener
/ = deslizar
v = vibrato
h = hammer-on
p = pull-off
^ = estirar 1/2 tono





Calificar esta versión:
Aviso: Este fichero es trabajo propio de su transcriptor y representa su interpretación personal de la canción. El material contenido en esta página es para exclusivo uso privado, por lo que se prohibe su reproducción o retransmisión, así como su uso para fines comerciales.
Más versiones de Carol, Los Ratones Paranoicos
Carol
acordes
Carol
tablatura
Carol
bajo
Descubre más canciones de Los Ratones Paranoicos