Carol, Los Ratones Paranoicos (bajo)

Autor: Anónimo | 37267 visualizaciones



Intro
G|---------------------------------------------------------
D|---------------------------------------0-2-2---0-2-2-----
A|---------------------------0-2-2-2-4-4-------4-------4-0-	 x2
E|-5-5-5-0-5-0-4-2-2-2-0-2-0-------------------------------


** Verso: igual a Intro **


Puente
G|-------------------2---
D|-------7-6-5-5---------
A|---------------3h4---4-	x2
E|-5-5-5-----------------


** Verso: igual a Intro **


** Puente **


Estribillo
G|-----------------------------2-2h5-4-2----------------
D|-------4-4-----------------4--------------------------
A|-----------7-4--4-4-4--4h5-------------5-------2-4-5-	x2
E|-5-5-5------------------------------------0-3-4-------

G|-----------------------------------------
D|-----------------------------------------
A|-------------------2h5-5-5-5-5-5-5-5-5-5-
E|-3-3-3-3-3-3-3-3-3-----------------------

G|-----------------------------------------
D|-----------------------------------------
A|-------------------2h5-5-5-5-5-5-5-5-5-5-
E|-0-3-3-3-3-3-3-3-3-----------------------


** Verso: igual a Intro **


** Puente **


** Estribillo **


Final
G|-------------------------------------------
D|-------------------------------------------
A|---------------------2h5-5-5-5-5-5-5-5-5-5-
E|-0-3-3-3-3-3-3-3-3-3-----------------------

G|-----------------------------------------
D|-----------------------------------------
A|-------------------2h5-5-5-5-5-5-5-5-5-5-
E|-0-3-3-3-3-3-3-3-3-----------------------

G|-----------------------------------------
D|-----------------------------------------
A|-------------------2h5-5-5-5-5-5-5-5-5-5-
E|-0-3-3-3-3-3-3-3-3-----------------------

G|-----------------------------------------------------
D|-----------------------------------------------------
A|-------------------2h5-5-5-5-3-3-3-3-2-2-2-2---------
E|-0-3-3-3-3-3-3-3-3---------------------------5-5-5-5-

G|---------------------------------------------------
D|---------------------------------------------------
A|-----------------2h5-5-5-5-3-3-3-3-2-2-2-2---------
E|-3-3-3-3-3-3-3-3---------------------------5-5-5-5-

G|---------------------------------------------------
D|---------------------------------------------------
A|-----------------2h5-5-5-5-3-3-3-3-2-2-2-2---------
E|-3-3-3-3-3-3-3-3---------------------------5-5-5-5-

G|---------------------------
D|---------------------------
A|-----------------2h5--5~~~-
E|-3-3-3-3-3-3-3-3-----------

Fuente original: LaCuerda
Colaborador original: Hernán Martínez [[email protected]]





Calificar esta versión:
Aviso: Este fichero es trabajo propio de su transcriptor y representa su interpretación personal de la canción. El material contenido en esta página es para exclusivo uso privado, por lo que se prohibe su reproducción o retransmisión, así como su uso para fines comerciales.
Más versiones de Carol, Los Ratones Paranoicos
Carol
acordes
Carol
tablatura
Carol
bajo
Descubre más canciones de Los Ratones Paranoicos