El Ché Y Los Rolling Stones, Los Rancheros (tablatura)

Autor: Anónimo | 31026 visualizaciones

Hello!! Gente por fin mandando el solo de esta cancion que me la pidieron
bastante asi que hay les va Pero antes unas pautas de como leerlo para
su mejor entendimiento.

Ejemplos:

♦ e:--2h4--   Hammer  (tocas la cuerda e en el traste 2 y
              precionas el traste 4 es el efecto martillo).

♦ B:--4s2--   Slide   (Tocas la cuerda B en el traste 4 y
              sin levantar el dedo lo deslisas hasta el
              traste 2).

♦ G:--4~--    V (Tocas la cuerda G en el traste 4 y sin
              levantar lo haces vibrar).

♦ D:--4.--    (Esto utizamos usualmente cuando hay pausas
              pequeñizimas en los punteos que le dan el
              ritmo requerido).

♦ A:--4b5--   Bend (se toka la cuerda A en el traste 4 y se
              levanta sin dejar de presionar la cuerda)

♦ E:--5r4--   Una vez levantada la cuerda E en el traste 4 se
              baja suavemente sin dejar de presionarlo)

                  EL CHE Y LOS ROLLING STONE
                        (LOS RANCHEROS)

Intro:

  A                            Bm
------------------------------------------------------------
--3s5--5-5-5-5-5-5-3~.-2~.----------------------------------
--------------------------4~.--4s7--7-7-7-7-7-7-6~.-4~.-2~.-
------------------------------------------------------------
------------------------------------------------------------
------------------------------------------------------------

  D                  E         A
-----------------------------------
-----------------------------------
--2s7--7-7-7-7-7-7-7-6~.-4~.-2-2~.-
-----------------------------------
-----------------------------------
-----------------------------------

Solo:

  A                            Bm
------------------------------------------------------------
--3s5--5-5-5-5-5-5-3~.-2~.----------------------------------
--------------------------4~.--4s7--7-7-7-7-7-7-6~.-4~.-2~.-
------------------------------------------------------------
------------------------------------------------------------
------------------------------------------------------------

  D                  E         A
--------------------------------------------------------
--------------------------------------------------------
--2s7--7-7-7-7-7-7-7-6~.-4~.-2-2~.--4b5-4p2p0-2-4b5r4-2-
--------------------------------------------------------
--------------------------------------------------------
--------------------------------------------------------
          A                                    Bm
--------7s9-9-9-9-9-7------------------------7s9-9-9-9-9-7-
------8---------------10s12-12-12-12-12-10-7---------------
--7-9------------------------------------------------------
-----------------------------------------------------------
-----------------------------------------------------------
-----------------------------------------------------------

                           D             E             A
-----------------------------------------------------------
--10s12-12-12-12-12-10-7-5s7-7-7-7-7-5---------------------
---------------------------------------4s6-6-6-6-6-4~.-2~.-
-----------------------------------------------------------
-----------------------------------------------------------
-----------------------------------------------------------

------------------------
------------------------
--4b5-4p2p0-2-4b5r4-2~.-
------------------------
------------------------
------------------------

Outro:

  A                            Bm
------------------------------------------------------------
--3s5--5-5-5-5-5-5-3~.-2~.----------------------------------
--------------------------4~.--4s7--7-7-7-7-7-7-6~.-4~.-2~.-
------------------------------------------------------------
------------------------------------------------------------
------------------------------------------------------------

  D                  E         A
--------------------------------------2---3---5---7h9-9~-9~-
-----------------------------------2s3-3s5-5s7-7s9----9~-9~-
--2s7--7-7-7-7-7-7-7-6~.-4~.-2-2~.--------------------------
------------------------------------------------------------
------------------------------------------------------------
------------------------------------------------------------

  A                            Bm
------------------------------------------------------------
--3s5--5-5-5-5-5-5-3~.-2~.----------------------------------
--------------------------4~.--4s7--7-7-7-7-7-7-6~.-4~.-2~.-
------------------------------------------------------------
------------------------------------------------------------
------------------------------------------------------------

  D             E      A
       Y me aleje  de ti
---------------------------
---------------------------
--2s7--7-6--4~.----4~.-----
----------------7~.----7~.-
---------------------------
---------------------------

Eso fue todo esta es la version de la cancion en disco si quieren los
punteos de la version en vivo solo me la     piden mi correo es
Blink18786@hotmail.com y para cualquier consulta sobre estas tablaturas
nos vemos y un saludo a las bandas Radio Guerrilla y Convulsion Bien
hay Gente Estuvo Buena la Tokada con ustedes.
Calificar esta versión:
Aviso: Este fichero es trabajo propio de su transcriptor y representa su interpretación personal de la canción. El material contenido en esta página es para exclusivo uso privado, por lo que se prohibe su reproducción o retransmisión, así como su uso para fines comerciales.
Más versiones de El Ché Y Los Rolling Stones, Los Rancheros
El Ché Y Los Rolling Stones
acordes
El Ché Y Los Rolling Stones (ver 2)
acordes
El Ché Y Los Rolling Stones
tablatura
El Ché Y Los Rolling Stones (ver 2)
tablatura
El Ché Y Los Rolling Stones
bajo
Descubre más canciones de Los Rancheros