El Ché Y Los Rolling Stones, Los Rancheros (bajo)

Autor: Anónimo | 43243 visualizaciones

ESTO ES EL PRIMER VERSO: SE TOCA 2 VECES

G/-2-22-22-2-22-22-3-33-33-3-33-33-----------------2-22-22-2-22-22-/
D/-----------------------------------------2-22-22-----------------/
A/---------------------------------5-55-55-------------------------/
E/-----------------------------------------------------------------/


ESTA ES LA PARTE DEL PRE CORO: SOLO SE TOCA UNA VEZ

G/-----------------2-22-22-2-22-22-----------------2-22-22---------/
D/---------------------------------------------------------2-22-22-/
A/---------5-55-55-------------------------5-55-55-----------------/
E/-3-33-33-------------------------3-33-33-------------------------/

ESTA ES LA PARTE DEL CORO Y SE TOCA 2 VECES

G/---------2-22-22-------------------------2-22-22---------/
D/-----------------2-22-22-4-44-44-----------------2-22-22-/
A/-5-55-55-------------------------5-55-55-----------------/
E/---------------------------------------------------------/

ACA ENTRA EL SOLO DE LA GUITARRA

……………………………………………………………………………….

ENTRA EL PRIMER VERSO. . . . . . . . . . . .
ACA ENTRA EL PRE CORO  . . . . . . . . . . .
Y EL CORO  . . . . . . . . . . . . . . . . .

////////////////////////////////////////////////////////////
ESTA CANCION S MUY FACIL DE SACAR PRACTIQUELNA ESCUCHADOLA PARA
Q AGARREN LOS TIEMPOS.

*/*/*/*/*/*/*/*/*/*/*/*/*/*/*/*/*/*/*/*/*/*/*/*/*/*/*/*/*/*/*/

ESTA CANCION SE LA DEDICO A MI HERMNITA KATHY TE KIERO MUCHO
LOKITA OK ¿¿ . . . . . .
Calificar esta versión:
Aviso: Este fichero es trabajo propio de su transcriptor y representa su interpretación personal de la canción. El material contenido en esta página es para exclusivo uso privado, por lo que se prohibe su reproducción o retransmisión, así como su uso para fines comerciales.
Más versiones de El Ché Y Los Rolling Stones, Los Rancheros
El Ché Y Los Rolling Stones
acordes
El Ché Y Los Rolling Stones (ver 2)
acordes
El Ché Y Los Rolling Stones
tablatura
El Ché Y Los Rolling Stones (ver 2)
tablatura
El Ché Y Los Rolling Stones
bajo
Descubre más canciones de Los Rancheros