Pasa Todo, Los De Adentro (tablatura) (ver 2)

Autor: Anónimo | 28530 visualizaciones

Hey coletos aka les pongo el intro... luego les pongo el solo...:P
SeRgInHãO
Intro
e-------------------------------3------------------3------2------0---------
B----------0h1p0------3-----------3----0h1-1-0-------3------3--------------
G------------------2-----2--0-------0-----------0------0------0------------
D-----0h2------------------------------------------------------------------
A--3-----------------------------------------------------------------------
E---------------------------3----------------------------------------------

e-------------------------------3------------------3------2------0---------
B----------0h1p0------3-----------3----0h1-1-0-------3------3--------------
G------------------2-----2--0-------0-----------0------0------0------------
D-----0h2------------------------------------------------------------------
A--3-----------------------------------------------------------------------
E---------------------------3----------------------------------------------
Calificar esta versión:
Aviso: Este fichero es trabajo propio de su transcriptor y representa su interpretación personal de la canción. El material contenido en esta página es para exclusivo uso privado, por lo que se prohibe su reproducción o retransmisión, así como su uso para fines comerciales.
Más versiones de Pasa Todo, Los De Adentro
Pasa Todo
acordes
Pasa Todo
tablatura
Pasa Todo (ver 2)
tablatura
Descubre más canciones de Los De Adentro