Pasa Todo, Los De Adentro (tablatura)

Autor: Anónimo | 15115 visualizaciones

e------------------------------3--------------------3------2---------------
B----------0h1p0-------3---------3------1/3/1-0-------3------3-------------
G-----------------0--2---0--0------0------------0-------0-------0----------
D-----0h2---------------------------------------------------------0--------
A--3-----------------------------------------------------------------------
E---------------------------3----------------------------------------------

e-------------------------------3-------------------3------2---------------
B----------0h1p0--------3---------3-----1/3/1-0-------3------3-------------
G------------------0--2---0--0------0-----------0-------0-------0----------
D-----0h2---------------------------------------------------------0--------
A--3-----------------------------------------------------------------------
E----------------------------3------------------0--------------------------

Arpegio

C
Dices que es mentira
      D
Que jamás me haz de soñar
   G          Bm          Em
Suspiras cada vez que me piensas
C
Pasas y me dices
         D
Que te olvidas de mí
   G         Bm      Em
Y sabes que aún sigo ahí
                    A7
Y me tienes que ocultar…

Rasgueo

C                   D
Dices a todos lo que era verdad
   G             Bm     Em
Historias que fingías y mas
C
Sueños que en verdad
           D
Nunca se hicieron realidad
G           Bm           Em
Cosas que soñamos y no están
                    A7
Y me tienes que ocultar
C         D2
De tu realidad…

Coro

C    D
Pasa todo extraño
G         G/F#
Pasa todo todo claro
C          D
Se pasa el tiempo en vano
G       G/F#
Porque aún te amo
C    D
Pasa todo extraño
G         G/F#
Pasa todo todo claro
A7
Claro con el viento
C          D2           C
Claro el silencio sola


Solo
C D G G/F# C D G Em C

50 - 52 - 53

C                     D
Dices que todo era mentira y más
G            Bm          Em
Dices que tu amor no fue real
C
Que matabas solo el tiempo
             D
En la espera de algo más
G              Bm         Em
Excusas que me das para callar
                    A7
Y me tienes que ocultar
C         D2
De tu realidad…

Coro

C    D
Pasa todo extraño
G         G/F#
Pasa todo todo claro
C          D
Se pasa el tiempo en vano
G       G/F#
Porque aún te amo
C    D
Pasa todo extraño
G         G/F#
Pasa todo todo claro
A7
Claro con el viento
C          D2           C
Claro el silencio sola

C            D        G   Bm   Em
Ah ah ah ah… Ah ah solaaa…soooola
C            D        G   Bm   Em
Ah ah ah ah… Ah ah solaaa…soooola
                    A7       C
Y me tienes que ocultar
     A7                  C          D2
Y me tienes que ocultar… De tu realidad.

C    D
Pasa todo extraño
G         G/F#
Pasa todo todo claro
C    D
Pasa todo extraño
G         G/F#
Pasa todo todo claro
C          D
Se pasa el tiempo en vano
G       G/F#
Porque aún te amo
C    D
Pasa todo extraño
G         G/F#
Pasa todo todo claro
A7
Claro con el viento
C          D2           G
Claro el silencio sola
Calificar esta versión:
Aviso: Este fichero es trabajo propio de su transcriptor y representa su interpretación personal de la canción. El material contenido en esta página es para exclusivo uso privado, por lo que se prohibe su reproducción o retransmisión, así como su uso para fines comerciales.
Más versiones de Pasa Todo, Los De Adentro
Pasa Todo
acordes
Pasa Todo
tablatura
Pasa Todo (ver 2)
tablatura
Descubre más canciones de Los De Adentro