Nubes Negras, Los De Adentro (tablatura) (ver 3)

Autor: sergio541 | 44405 visualizaciones

INTRO

e-3-----2---0-----0-------0--------------------
B---0-----0---0-------0h1---0---3-----0h1------
G-----0-------------0---------0---0--------0---
D-2---------------------------------0----------
A-----------------3----------------------------
E-------------------------------3--------------

e-------0---------3-----2h3p2--0---------0-----
B-----3---3s5-0-----0---------------0h1----0---
G---2-----------------0-----------0----------0-
D-0---------------2----------------------------
A------------------------------3---------------
E----------------------------------------------


e------------------0------------0-----3------
B-3----------0-1-3-------0-1--3---3----------
G----0---0h2-----------2------------0--------
D------0------------------------------2------
A--------------------------------------------
E-3--------------------2---------------------

En esta parte entra el piano y la guitarra hace este arpegio

  Em            C             G             D
E-0-----0-----|-0-----0-----|-3-----3-----|-2-----2-----|
B---0-----0---|---1-----1---|---3-----3---|---3-----3---|
G-----0-----0-|-----0-----0-|-----0-----0-|-----2-----2-|
D-------------|-------------|-------------|-------------|
A-------------|-3-----------|-------------|-------------|
E-0-----------|-------------|-3-----------|-2-----------|
   Moriría por ti

  Em            C             G             D
E-0-----0-----|-0-----0-----|-3-----3-----|-2-----2-----|
B---0-----0---|---1-----1---|---3-----3---|---3-----3---|
G-----0-----0-|-----0-----0-|-----0-----0-|-----2-----2-|
D-------------|-------------|-------------|-0-----------|
A-------------|-3-----------|-------------|-------------|
E-0-----------|-------------|-3-----------|-------------|
   Por ti movería cielo y tierra, si pudiera

  Em            C             G             D
E-0-----0-----|-0-----0-----|-3-----3-----|-2-----2-----|
B---0-----0---|---1-----1---|---3-----3---|---3-----3---|
G-----0-----0-|-----0-----0-|-----0-----0-|-----2-----2-|
D-------------|-------------|-------------|-0-----------|
A-------------|-3-----------|-------------|-------------|
E-0-----------|-------------|-3-----------|-------------|
  Cuanto daría por tenerte a mi lado

  Am            C             G             D
E-0-----0-----|-0-----0-----|-3-----3-----|-2-----2-----|
B---1-----1---|---1-----1---|---3-----3---|---3-----3---|
G-----2-----2-|-----0-----0-|-----0-----0-|-----2-----2-|
D-------------|-------------|-------------|-------------|
A-0-----------|-3-----------|-------------|-------------|
E-------------|-------------|-3-----------|-2-----------|
  Sin ti me sentiría acabado


Aquí en esta parte se hace este riff

  C5
E-0----------------
B-1----------------
G-0----------------
D-2----------------
A-3--------2-3-2-0-
E-3----3-----------


Verso 1

Em         C         G   D
 Ya la han visto por ahí
Em              C            G           D
 Siempre tan distante he intocable como siempre
Em       C          G              D
 Eres el cielo el infierno de mis sueños
Am          C           G   Bm
 Y te he soñado tantas veces

Coro
Em    C            G       D
Nubes negras sobre mi, corazón
Em    C          G             D
Nubes negras sin ti, todo se acabaría
Em    C            G       D
Nubes negras sobre mi, corazón
Em    C          G      D    Em
Nubes negras sin ti me moriría


Verso2

Em     C             G    D
 No podría estar sin ella
Em     C          G  D
 Me morirá del dolor,
Em
 No podría soportarlo,
Em         C            G  D
 Cuando no siento su calor
Am         C            G  Bm
 Cuando no siento su calor

Coro
Em    C            G       D
Nubes negras sobre mi, corazón
Em    C          G             D
Nubes negras sin ti, todo se acabaría
Em    C            G       D
Nubes negras sobre mi, corazón
Em    C          G      D    Em
Nubes negras sin ti me moriría


En esta parte del punteo las notas se tocan dos veces,
es decir dos ciclos por cada nota


  Am                           C      G
E----------------------------------------------------12-10-------
B------12h13-13-13-12-10-13-12-----------------8/12--------12-10-
G------------------------------12-9--5/7-7-9-7-------------------
D----------------------------------------------------------------
A----------------------------------------------------------------
E----------------------------------------------------------------

  D
E-----10-----8-----7-----5----3-
B-5/7----3/5---3/5---3/5---1/3--
G-------------------------------
D-------------------------------
A-------------------------------
E-------------------------------

En esta parte las notas van rasgueadas de abajo hacia arriba

C                   G               Am
Huuuuuuuuu estoy cansado del juego
                  C
No lo puedo soportar

Coro
Em    C            G       D
Nubes negras sobre mi, corazón
Em    C          G             D
Nubes negras sin ti, todo se acabaría
Em    C            G       D
Nubes negras sobre mi, corazón
Em    C          G      D    C
Nubes negras sin ti me moriría

Acordes

      e  B  G  D  A  E

Em    0  0  0  2  2  0

C     0  1  0  2  3  0

C5    0  1  0  2  3  3

G     3  3  0  0  2  3

D     2  3  2  0  0  0

Am    0  1  2  2  0  0

Bm    2  3  4  4  2  2


En este tutorial pueden observar la intro, y ps de aqui
la saque espero este bn
http://www.youtube.com/watch?v=cObIjV70V7c&feature=mfu_in_order&list=UL
Cualquier sugerencia o duda este
es mi correo sergis_andres541@hotmail.com
Calificar esta versión:
Aviso: Este fichero es trabajo propio de su transcriptor y representa su interpretación personal de la canción. El material contenido en esta página es para exclusivo uso privado, por lo que se prohibe su reproducción o retransmisión, así como su uso para fines comerciales.
Más versiones de Nubes Negras, Los De Adentro
Nubes Negras
acordes
Nubes Negras (ver 2)
acordes
Nubes Negras (ver 3)
acordes
Nubes Negras (ver 4)
acordes
Nubes Negras (ver 5)
acordes
Nubes Negras
tablatura
Nubes Negras (ver 2)
tablatura
Nubes Negras (ver 3)
tablatura
Descubre más canciones de Los De Adentro