Nubes Negras, Los De Adentro (tablatura) (ver 2)

Autor: JuanDaCh | 26389 visualizaciones

e|------------------------------|
B|-12/13-13-13-12-10-13-12------|
G|-------------------------12-9-|
D|------------------------------|
A|------------------------------|
E|------------------------------|

e|-----------------12-10--------|
B|--------------12-------12-10--|
G|-----7-9-7-12-----------------|
D|-7b9--------------------------|
A|------------------------------|
E|------------------------------|

e|------12------10-----8-----7-----5-|
B|-----------------------------------|
G|-9/12----9/11----7/9---5/7---3/5---|
D|-----------------------------------|
A|-----------------------------------|
E|-----------------------------------|
Calificar esta versión:
Aviso: Este fichero es trabajo propio de su transcriptor y representa su interpretación personal de la canción. El material contenido en esta página es para exclusivo uso privado, por lo que se prohibe su reproducción o retransmisión, así como su uso para fines comerciales.
Más versiones de Nubes Negras, Los De Adentro
Nubes Negras
acordes
Nubes Negras (ver 2)
acordes
Nubes Negras (ver 3)
acordes
Nubes Negras (ver 4)
acordes
Nubes Negras (ver 5)
acordes
Nubes Negras
tablatura
Nubes Negras (ver 2)
tablatura
Nubes Negras (ver 3)
tablatura
Descubre más canciones de Los De Adentro