No Mas, Los De Adentro (tablatura) (ver 2)

Autor: abel01 | 33122 visualizaciones

--------4b—-7-4--------------------------------------------
-5/7-5h7-----------7-5-7b---4-5-7-5-4-----2-----5/7-5-2----
--------------------------4-------------2---2-----------4--
-----------------------------------------------------------
-----------------------------------------------------------
-----------------------------------------------------------

-------------
----5------7-
--4----4/6---
-------------
-------------
-------------

-------------------------12h14-12-14b—12/14-12-----------------
------------------------------------------------14—12/14-12----
-8h9-8---------8h9-8—11b-----------------------------------14b-
-------9b-6-7--------------------------------------------------
---------------------------------------------------------------
---------------------------------------------------------------


-------------------4-7-4---------
---------------4h7--------7-5-7b-
-----------4h6-------------------
-------4h6-----------------------
---4h7---------------------------
---------------------------------

esta punteo esta mejorado a el anterior.

Comentarios del colaborador: Este punteo es de la cuerda esta bueno por eso lo puse

Calificar esta versión:
Aviso: Este fichero es trabajo propio de su transcriptor y representa su interpretación personal de la canción. El material contenido en esta página es para exclusivo uso privado, por lo que se prohibe su reproducción o retransmisión, así como su uso para fines comerciales.
Más versiones de No Mas, Los De Adentro
No Más
acordes
No Más
tablatura
No Mas (ver 2)
tablatura
Descubre más canciones de Los De Adentro