No Más, Los De Adentro (tablatura)

Autor: Stevens | 34542 visualizaciones

Verso

E B F#m A B

Coro

C#m B A B


Solo
|-----------4b—-|--7-4----------|-----------------|----------------4-5-7b-|
|--5h7-5h7------|-------7-5-7b--|--4-5---7-5-4----|--2---0-----5h7--------|
|---------------|---------------|------4-------4--|----2---2--------------|
|---------------|---------------|-----------------|-----------------------|
|---------------|---------------|-----------------|-----------------------|
|---------------|---------------|-----------------|-----------------------|



|---------------|-------------|--12h14-12-14b--12s14-12------------------|
|---------------|-------------|-------------------------14—12s14-12------|
|--8h9-8--------|--8h9-8—11b--|-------------------------------------14b--|
|--------9-6-7--|-------------|------------------------------------------|
|---------------|-------------|------------------------------------------|
|---------------|-------------|------------------------------------------|


|------------------2h4----------|
|--------------4h7-----4h5------|
|----------4h6-------------4h6--|
|------4h6----------------------|
|--4h7--------------------------|
|-------------------------------|

Comentarios del colaborador: esta cancion fue estraida de: www.lacuerda.net espero que la disfruten Stevens Andres Arocha Vengoechea - (sarocha-1991@hotmail.com

Calificar esta versión:
Aviso: Este fichero es trabajo propio de su transcriptor y representa su interpretación personal de la canción. El material contenido en esta página es para exclusivo uso privado, por lo que se prohibe su reproducción o retransmisión, así como su uso para fines comerciales.
Más versiones de No Más, Los De Adentro
No Más
acordes
No Más
tablatura
No Mas (ver 2)
tablatura
Descubre más canciones de Los De Adentro