Really Sex, Los Daniels (tablatura) (ver 2)

Autor: Anónimo | 17008 visualizaciones



que onda aqui les dejo la tab que usan los boligoms es de los daniels
cualquier duda(jhesulp@hotmail.com)espero y les sirva.


Aqui en la parte del intro de la cancion la primera vuelta es a una
guitarra y desde la segunda vuelta entran las 2 juntas.


                          INTRO

E|-------------------------------------------
A|-------------------------------------------
D|-1-2--2-2--4-5--5-5--8-9--9-9-8-5-4--4-4---
G|-------------------------------------------
B|-------------------------------------------
e|-------------------------------------------

            E---------------------------------------|
            A---------------------------2--2-2--1-2-|
            D-----1-2--2-2--4-5-5-5-4-0-------------| (x2)
            G---------------------------------------|
            B---------------------------------------|
            e---------------------------------------|




E|------------------------------------------
A|------------------------------------------
D|-1-2--2-2--4-5--5-5--8-9--9-9-8-5-4--4-4--
G|------------------------------------------
B|------------------------------------------
e|------------------------------------------
                   E--------------------------------------------|
                   A--------------------------2--2-2--1-2-------|
                   D----1-2--2-2--4-5-5-5-4-0-------------5-4-5-|
                   G--------------------------------------------|
                   B--------------------------------------------|
                   e--------------------------------------------|



                     VERSO

Siempre que mi cabeza sueña con
    tu presencia     vuelves tú a mi
E|-----------------|-----------------|
A|-5-5-5-5-2-2-2-2-|-5-5-5-5-2-2-2-2-|
D|-7-7-7-7-4-4-4-4-|-7-7-7-7-4-4-4-4-| (guitarra 1)
G|-7-7-7-7-4-4-4-4-|-7-7-7-7-4-4-4-4-|
B|-----------------|-----------------|
e|-----------------|-----------------|
 |
 |
E|-------------------------|-------------------------|
A|-------------------------|-------------------------|
D|-------------------------|-------------------------| (guitarra 2)
G|-------------------------|-------------------------|(esto va con
B|-15-15-15-15-12-12-12-12-|-15-15-15-15-12-12-12-12-|      tremolo)
e|-------------------------|-------------------------|

cama, mi linda dama sólo es pen-
   sar en tu cuer-----po monumental.
E|-----------------|-----------------|
A|-5-5-5-5-2-2-2-2-|-5-5-5-5-2-2-2-2-|
D|-7-7-7-7-4-4-4-4-|-7-7-7-7-4-4-4-4-| (guitarra 1)
G|-7-7-7-7-4-4-4-4-|-7-7-7-7-4-4-4-4-|
B|-----------------|-----------------|
e|-----------------|-----------------|
 |
 |
E|-------------------------|-------------------------|
A|-------------------------|-------------------------|
D|-------------------------|-------------------------| (guitarra 2)
G|-------------------------|-------------------------|(esto va con
B|-15-15-15-15-12-12-12-12-|-15-15-15-15-12-12-12-12-|      tremolo)
e|-------------------------|-------------------------|





E|-----------------------------------------|
A|-----------------------------------------|
D|-1-2--2-2--4-5--5-5--8-9--9-9-8-5-4--4-4-| (las dos guitarras)
G|-----------------------------------------|
B|-----------------------------------------|
e|-----------------------------------------|


                            CORO

Siempre en tus labios
I really really really really sex ohh!!
E|-----------------------------|
A|-------------------9~~~~~~~~-|
D|-9~~~~~~~~---12-10-----------|(guitarra 1)
G|-----------------------------|
B|-----------------------------|
e|-----------------------------|
 |
 |
E|-----------------------------|
A|-----------------------------|
D|-------------9----7--5-------|(guitarra 2)
G|-7----11--9--8----6--4-------|
B|-8----10--8--7----5--3-------|
e|-7----10--8------------------|

siempre en tu cuerpo
I really really really sex uohh!!.
E|-----------------------------|
A|-------------------9~~~~~~~~-|
D|-9~~~~~~~~---12-10-----------|(guitarra 1)
G|-----------------------------|
B|-----------------------------|
e|-----------------------------|
 |
 |
E|-----------------------------|
A|-----------------------------|
D|-------------9----7--5-------|(guitarra 2)
G|-7----11--9--8----6--4-------|
B|-8----10--8--7----5--3-------|
e|-7----10--8------------------|





E|-------------------------------------------
A|-------------------------------------------
D|-1-2--2-2--4-5--5-5--8-9--9-9-8-5-4--4-4---
G|-------------------------------------------
B|-------------------------------------------
e|-------------------------------------------
                   E--------------------------------------------|
                   A--------------------------2--2-2--1-2-------|
                   D----1-2--2-2--4-5-5-5-4-0-------------5-4-5-|
                   G--------------------------------------------|
                   B--------------------------------------------|
                   e--------------------------------------------|








                           VERSO

Siempre que mi cabeza se embriaga
     con olor de        tu perfume
E|-----------------|-----------------|
A|-5-5-5-5-2-2-2-2-|-5-5-5-5-2-2-2-2-|
D|-7-7-7-7-4-4-4-4-|-7-7-7-7-4-4-4-4-| (guitarra 1)
G|-7-7-7-7-4-4-4-4-|-7-7-7-7-4-4-4-4-|
B|-----------------|-----------------|
e|-----------------|-----------------|
 |
 |
E|-------------------------|-------------------------|
A|-------------------------|-------------------------|
D|-------------------------|-------------------------| (guitarra 2)
G|-------------------------|-------------------------|(esto va con
B|-15-15-15-15-12-12-12-12-|-15-15-15-15-12-12-12-12-|       tremolo)
e|-------------------------|-------------------------|

loca, loca se pone, ese ero-
     tismo tuyo     a ella le impone.
E|-----------------|-----------------|
A|-5-5-5-5-2-2-2-2-|-5-5-5-5-2-2-2-2-|
D|-7-7-7-7-4-4-4-4-|-7-7-7-7-4-4-4-4-| (guitarra 1)
G|-7-7-7-7-4-4-4-4-|-7-7-7-7-4-4-4-4-|
B|-----------------|-----------------|
e|-----------------|-----------------|
 |
 |
E|-------------------------|-------------------------|
A|-------------------------|-------------------------|
D|-------------------------|-------------------------| (guitarra 2)
G|-------------------------|-------------------------|(esto va con
B|-15-15-15-15-12-12-12-12-|-15-15-15-15-12-12-12-12-|      tremolo)
e|-------------------------|-------------------------|



                               CORO

Siempre en tus labios
I really really really really sex ohh!!
E|-----------------------------|
A|-------------------9~~~~~~~~-|
D|-9~~~~~~~~---12-10-----------|(guitarra 1)
G|-----------------------------|
B|-----------------------------|
e|-----------------------------|
 |
 |
E|-----------------------------|
A|-----------------------------|
D|-------------9----7--5-------|(guitarra 2)
G|-7----11--9--8----6--4-------|
B|-8----10--8--7----5--3-------|
e|-7----10--8------------------|

siempre en tu cuerpo
I really really really sex uohh!!.
E|-----------------------------|
A|-------------------9~~~~~~~~-|
D|-9~~~~~~~~---12-10-----------|(guitarra 1)
G|-----------------------------|
B|-----------------------------|
e|-----------------------------|
 |
 |
E|-----------------------------|
A|-----------------------------|
D|-------------9----7--5-------|(guitarra 2)
G|-7----11--9--8----6--4-------|
B|-8----10--8--7----5--3-------|
e|-7----10--8------------------|


Siempre en tus labios
I really really sex uohh!!
E|-7/6-7-5-7--7/6-7-5-7--7/6-7-5-7--------------|
A|-9/8-9-7-9--9/8-9-7-9--9/8-9-7-9--9~~~~-7~~~~-|
D|-9/8-9-7-9--9/8-9-7-9--9/8-9-7-9--------------|
G|----------------------------------------------|
B|----------------------------------------------|
e|----------------------------------------------|

siempre pensando,siempre pensando
en tu cuerpo monumental.
E|-7/6-7-5-7--7/6-7-5-7--7/6-7-5-7---7--10------|
A|-9/8-9-7-9--9/8-9-7-9--9/8-9-7-9---9--12--7---|
D|-9/8-9-7-9--9/8-9-7-9--9/8-9-7-9---9--12--9---|
G|------------------------------------------9---|
B|----------------------------------------------|
e|----------------------------------------------|


                       SOLO

E|--------------------------------------------------------
A|--------------------------------------------------------
D|--------------------------------------------------------
G|--------------------------------------------------------
B|-12-12-12-12--12-12--12-12--12-12--12-12--12-12--12-12--
e|-12-12-12-12--15-14--15-14--15-14--17-15--17-15--17-15--
                          E---------------------------|
                          A---------------------------|
                          D---------------------------|(guitarra 1)
                          G---------------------------|
                          B---12-12-12-12-12-12-12-12-|
                          e---15-14-15-14-15-14-15-14-|



E|-----------------------------------
A|-----------------------------------
D|-----------------------------------
G|-----------------------------------
B|-12-12-12-12--12-12--12-12--12-12--
e|-12-12-12-12--15-14--15-14--15-14--
          E---------------------------------------------|
          A---------------------------------------------|
          D---------------------------------------------|(guitarra 1)
          G---------------------------------------------|
          B---12-13-12-10-12-13-12-10-12-13-12-10-8-7-5-|
          e---------------------------------------------|








                          VERSO

Siempre será un secreto si asi ella
    lo ha querido    tú nunca sabrás
E|-----------------|-----------------|
A|-5-5-5-5-2-2-2-2-|-5-5-5-5-2-2-2-2-|
D|-7-7-7-7-4-4-4-4-|-7-7-7-7-4-4-4-4-| (guitarra 1)
G|-7-7-7-7-4-4-4-4-|-7-7-7-7-4-4-4-4-|
B|-----------------|-----------------|
e|-----------------|-----------------|
 |
 |
E|-------------------------|-------------------------|
A|-------------------------|-------------------------|
D|-------------------------|-------------------------| (guitarra 2)
G|-------------------------|-------------------------|(esto va con
B|-15-15-15-15-12-12-12-12-|-15-15-15-15-12-12-12-12-|       tremolo)
e|-------------------------|-------------------------|

que te quiero más,te lleva-
    ré A LA cama       una vez más.
E|-----------------|-----------------|
A|-5-5-5-5-2-2-2-2-|-5-5-5-5-2-2-2-2-|
D|-7-7-7-7-4-4-4-4-|-7-7-7-7-4-4-4-4-| (guitarra 1)
G|-7-7-7-7-4-4-4-4-|-7-7-7-7-4-4-4-4-|
B|-----------------|-----------------|
e|-----------------|-----------------|
 |
 |
E|-------------------------|-------------------------|
A|-------------------------|-------------------------|
D|-------------------------|-------------------------| (guitarra 2)
G|-------------------------|-------------------------|(esto va con
B|-15-15-15-15-12-12-12-12-|-15-15-15-15-12-12-12-12-|       tremolo)
e|-------------------------|-------------------------|

E|---------------------------------------------------|
A|---------------------------------------------------|
D|---------------------------------------------------| (guitarra 1
G|---------------------------------------------------|     solamente)
B|---------------------------------------------------|
e|-12-10-9-10-9-10-9-7-6-7---------------------------|



                     CORO

Siempre en tus labios
I really really really really sex ohh!!
E|-----------------------------|
A|-------------------9~~~~~~~~-|
D|-9~~~~~~~~---12-10-----------|(guitarra 1)
G|-----------------------------|
B|-----------------------------|
e|-----------------------------|
 |
 |
E|-----------------------------|
A|-----------------------------|
D|-------------9----7--5-------|(guitarra 2)
G|-7----11--9--8----6--4-------|
B|-8----10--8--7----5--3-------|
e|-7----10--8------------------|

siempre en tu cuerpo
I really really really sex uohh!!.
E|-----------------------------|
A|-------------------9~~~~~~~~-|
D|-9~~~~~~~~---12-10-----------|(guitarra 1)
G|-----------------------------|
B|-----------------------------|
e|-----------------------------|
 |
 |
E|-----------------------------|
A|-----------------------------|
D|-------------9----7--5-------|(guitarra 2)
G|-7----11--9--8----6--4-------|
B|-8----10--8--7----5--3-------|
e|-7----10--8------------------|

Siempre en tus labios
I really really sex uohh!!
E|-7/6-7-5-7--7/6-7-5-7--7/6-7-5-7--------------|
A|-9/8-9-7-9--9/8-9-7-9--9/8-9-7-9--9~~~~-7~~~~-|
D|-9/8-9-7-9--9/8-9-7-9--9/8-9-7-9--------------|
G|----------------------------------------------|
B|----------------------------------------------|
e|----------------------------------------------|

siempre pensando,siempre pensando
en tu cuerpo monumental...
E|-7/6-7-5-7--7/6-7-5-7--7/6-7-5-7---7--10------|
A|-9/8-9-7-9--9/8-9-7-9--9/8-9-7-9---9--12--7---|
D|-9/8-9-7-9--9/8-9-7-9--9/8-9-7-9---9--12--9---|
G|------------------------------------------9---|
B|----------------------------------------------|
e|----------------------------------------------|

Cualquier duda o comentario a mi correo.





Calificar esta versión:
Aviso: Este fichero es trabajo propio de su transcriptor y representa su interpretación personal de la canción. El material contenido en esta página es para exclusivo uso privado, por lo que se prohibe su reproducción o retransmisión, así como su uso para fines comerciales.
Más versiones de Really Sex, Los Daniels
Really Sex
tablatura
Really Sex (ver 2)
tablatura
Descubre más canciones de Los Daniels